» » »

Dance Gavin Dance - It's Safe To Say You Dig The Back Seat Bass

Artists:  A B C D E F G H I J K L M N O P Q R S T U V W X Y Z # 

It's Safe To Say You Dig The Back Seat Bass

(ver. 1) Click to play this song!
Dance Gavin Dance
 Rating:
4/5 (4 votes)

 It's Safe To Say You Dig The Back Seat lessons Tabs too difficult? Try these video lessons and learn fast
 
                Dance Gavin Dance

Dropped D

This is how i play it. The notes are right, but the slides and pull-off and hammer-ons 
what i like to do. And some of the fills may not be right but that's is as close as it gets.


G:-----
D:-----
A:-----
D:-7/--

  "I threw her away"
G:------------------------------------------------------------------|   x4
D:------------------------------------------------------------------|
A:------------------------------------------------------------------|
D:-3-3-3-3-3-3-3-3-3-3-3-3-3-3-3-3-0-0-0-0-0-0-0-0-0-0-0-0-0-0-0-0--|


  "Now that I've decided"
G:----------------------------------------------|   x2
D:----------------------------------------------|
A:----------------------------------------------|
D:-7777-7-7-7--7777-7-7-7--7777-7-7-7--7777-5~--|

G:------------------------------------------------|
D:------------------------------------------------|
A:------------------------------------------------|
D:-7777-7-7-7--7777-7-7-7--7777-7-7-7--7777-5--7--|


  "One by one"
G:--------------------------------|
D:--------------------------------|
A:--------------------------------|
D:-7777777777777777-7-7-0-0-0-0~--|

G:------------------------------------------------|   x3
D:------------------------------------------------|
A:------------------------------------------------|
D:-33333333333333333333333333333333-7-7-0-0-0-0~--|

G:--------|
D:--------|
A:--------|
D:-57537--|


  "And how does it feel to be used"
G:------------------------------------|   x4
D:------------------------------------|
A:------------------3333333333333333--|
D:-7777777777777777-------------------|


  "Whores don't trip"
G:----------------------------|   x4
D:----------------------------|
A:----------8888888888888888--|
D:-7~-7-7-7-------------------|

G:-----
D:-----
A:-8~--
D:-----

  "your face"
G:------------|
D:------------|
A:-5-3-0-3-5--|
D:------------|

  "And now I am so faint"
G:-----------------|
D:-----------------|
A:-------3~----0~--|
D:-3~--------------|

G:-----------------|
D:-----------------|
A:-----------------|
D:-3~----5~----7~--|

G:-----------------|
D:-----------------|
A:-------3~----0~--|
D:-3~--------------|

G:-----------------|
D:-----------------|
A:-----------------|
D:-3~----5~----7~--|

G:-------------------------|   x3
D:------7h9-------7h9------|
A:-8~-------10~-------12~--|
D:-------------------------|

G:------------------------------------------|
D:------7h9-------7h9-----------------------|
A:-8~-------10~-----------------------------|
D:--------------------7-7-7-7-7-7/10101010--|

G:--------------------------------------------------|
D:--------------------------------------------------|
A:-----------------3-3-3-3-3-3-3-3-0-0-0-0-0-0-0-0--|
D:-3-3-3-3-3-3-3-3----------------------------------|

G:--------------------------------------------------|
D:--------------------------------------------------|
A:--------------------------------------------------|
D:-3-3-3-3-3-3-3-3-5-5-5-5-5-5-5-5-7-7-7-7-7-7-7-7--|

G:--------------------------------------------------|
D:--------------------------------------------------|
A:-----------------3-3-3-3-3-3-3-3-0-0-0-0-0-0-0-0--|
D:-3-3-3-3-3-3-3-3----------------------------------|

G:--------------------------------------------------|
D:--------------------------------------------------|
A:--------------------------------------------------|
D:-3-3-3-3-3-3-3-3-5-5-5-5-5-5-5-5-7-7-7-7-7-7-7-7--|


  "Drag his body down to the mill"
G:--------------------------------------------------|
D:--------------------------------------------------|
A:--------------------------------------------------|
D:-7-7-7-7-7-7-0-0-0-0-0-0-3-3-3-3-3-3-3-3-3-3-3-3--|

G:-------------------------------------------------|
D:-------------------------------------------------|
A:-------------------------------------9h12-5h8-0--|
D:-7-7-7-7-7-7-0-0-0-0-0-0-3-3-3-3-3-3-------------|

G:--------------------------------------------------|
D:--------------------------------------------------|
A:--------------------------------------------------|
D:-7-7-7-7-7-7-0-0-0-0-0-0-3-3-3-3-3-3-3-3-3-3-3-3--|

G:-------------------------------------------------|
D:-------------------------------------------------|
A:-------------------------------------9h12-5h8-0--|
D:-7-7-7-7-7-7-0-0-0-0-0-0-3-3-3-3-3-3-------------|


  "This is all justified"
G:---------------------------------------------------|
D:---------------------------------------------------|
A:---------------------------------------------------|
D:-777777777777-000000000000-3333333333333333333333--|

G:---------------------------------------------------|
D:---------------------------------------------------|
A:---------------------------------------------------|
D:-777777777777-000000000000-333333333333-3-3-3-3-3--|

G:---------------------------------------------------|
D:---------------------------------------------------|
A:---------------------------------------------------|
D:-777777777777-000000000000-3333333333333333333333--|

G:------------------------------------------------------|
D:------------------------------------------------------|
A:------------------------------------------------------|
D:-777777777777-000000000000-333333333333-3-3-3-3-3-/7~-|


  "Now we're all afraid"
G:------------------------7-7h9--|
D:----10~-------/10~--7~---------|
A:-8~----10~---------------------|
D:-------------------------------|

G:------10~-------------------------------|
D:---10~----------------10------10/14-----|
A:-8~------10~----10h12----12~--------12--|
D:----------------------------------------|

G:------------------------7-7h9--|
D:----10~-------/10~--7~---------|
A:-8~----10~---------------------|
D:-------------------------------|

G:------10~---------------------|
D:---10~----------------10------|
A:-8~------10~----10h12----12~--|
D:------------------------------|
            
Submit corrections


        It's Safe To Say You Dig The Back Seat lessons Hard to play? Try these video lessons and learn fast It's Safe To Say You Dig The Back Seat lessons
        
↑ Back to top | Tablatures and chords for acoustic guitar and electric guitar, ukulele, drums are parodies/interpretations of the original songs. You may use it for private study, scholarship, research or language learning purposes only