» » »

Damien Rice - My Favourite Faded Fantasy Tabs

Artists:  A B C D E F G H I J K L M N O P Q R S T U V W X Y Z # 

My Favourite Faded Fantasy Tabs

(ver. 1) Click to play this song!
Damien Rice
 Rating:
4.3/5 (15 votes)

 My Favourite Faded Fantasy  lessons Tabs too difficult? Try these video lessons and learn fast
 
                [Verse 1]

[00:00-00:13]
    Am                                      G#
e|------------0---------0-------1---r0------0---------0---------0-------1---r0------0--|
B|------1---1-----1---1-----1-----1---1---1-------1-------1---1-----1-----1---1---1----|
G|--0h2---2-----2---2-----2---2-----2---2-----0h1---1---1---1-----1---1-----1---1------|
D|-------------------------------------------------------------------------------------|
A|-------------------------------------------------------------------------------------|
E|-------------------------------------------------------------------------------------|

[00:13-00:22]
    C/G                                     C/F
e|--------0-0-----0-------5p0---------0---------0---------0---------0------------------|
B|----1---------1-----1---------1---1-----1---1-----1---1-----1---1-----1---1----------|
G|--0---0-----0-----0---0-----0---0----------------------------------------------------|
D|--------------------------------------3---3-----3---3-----3---3-----3---3------------|
A|-------------------------------------------------------------------------------------|
E|-------------------------------------------------------------------------------------|

[00:22-00:33]
    Am                                      G#
e|------------0---------0---------0---------0---------0---------0---------0---------0--|
B|------1---1-----1---1-----1---1-----1---1-----1---1-----1---1-----1---1-----1---1----|
G|--0h2---2-----2---2-----2---2-----2---2-----1---1-----1---1-----1---1-----1---1------|
D|-------------------------------------------------------------------------------------|
A|-------------------------------------------------------------------------------------|
E|-------------------------------------------------------------------------------------|

[00:33-00:43]
    C/G                                     C/F
e|----------0---------0---------0---------0---------0---------0---------0---------0----|
B|----1---1-----1---1-----1---1-----1---1-----1---1-----1---1-----1---1-----1---1------|
G|--0---0-----0---0-----0---0-----0---0------------------------------------------------|
D|------------------------------------------3---3-----3---3-----3---3-----3---3--------|
A|-------------------------------------------------------------------------------------|
E|-------------------------------------------------------------------------------------|

[00:43-00:53]
    Am                                      G#
e|------------0---------0---------0---------0---------0---------0---------0---------0--|
B|------1---1-----1---1-----1---1-----1---1-----1---1-----1---1-----1---1-----1---1----|
G|--0h2---2-----2---2-----2---2-----2---2-----1---1-----1---1-----1---1-----1---1------|
D|-------------------------------------------------------------------------------------|
A|-------------------------------------------------------------------------------------|
E|-------------------------------------------------------------------------------------|

[00:53-1:02]
    C/G                                     C/F
e|----------0---------0---------0---------0---------0---------0---------0---------0----|
B|----1---1-----1---1-----1---1-----1---1-----1---1-----1---1-----1---1-----1---1------|
G|--0---0-----0---0-----0---0-----0---0------------------------------------------------|
D|------------------------------------------3---3-----3---3-----3---3-----3---3--------|
A|-------------------------------------------------------------------------------------|
E|-------------------------------------------------------------------------------------|


[Chorus 1]
[1:02-1:12]
    C/F                                     C/G
e|----------0---------0---------0---------0---------0---------0---------0---------0----|
B|----1---1-----1---1-----1---1-----1---1-----1---1-----1---1-----1---1-----1---1------|
G|-------------------------------------------------------------------------------------|
D|--3---3-----3---3-----3---3-----3---3-----2---2-----2---2-----2---2-----2---2--------|
A|-------------------------------------------------------------------------------------|
E|-------------------------------------------------------------------------------------|

[1:12-1:22]
    C/F                                       Am
e|----------0---------0---------0--------------------------------------0---------------|
B|----1---1-----1---1-----1---1-----1---1---1----1-1--1---1---1---1-1----1---1---------|
G|-------------------------------------------------------------------------2-----------|
D|--3---3-----3---3-----3---3-----3---3---3--------------------------------------------|
A|--------------------------------------------0--0-0---0-0--0---0----------------------|
E|-------------------------------------------------------------------------------------|


[Verse 2]
[1:22-1:32]
    Am                                      G#
e|------------0---------0---------0---------0---------0---------0---------0---------0--|
B|------1---1-----1---1-----1---1-----1---1-----1---1-----1---1-----1---1-----1---1----|
G|--0h2---2-----2---2-----2---2-----2---2-----1---1-----1---1-----1---1-----1---1------|
D|-------------------------------------------------------------------------------------|
A|-------------------------------------------------------------------------------------|
E|-------------------------------------------------------------------------------------|

[1:32-1:42]
    C/G                                     C/F
e|----------0---------0---------0---------0---------0---------0---------0---------0----|
B|----1---1-----1---1-----1---1-----1---1-----1---1-----1---1-----1---1-----1---1------|
G|--0---0-----0---0-----0---0-----0---0------------------------------------------------|
D|------------------------------------------3---3-----3---3-----3---3-----3---3--------|
A|-------------------------------------------------------------------------------------|
E|-------------------------------------------------------------------------------------|

[1:42-1:51]
    Am                                      G#
e|------------0---------0---------0---------0---------0---------0---------0---------0--|
B|------1---1-----1---1-----1---1-----1---1-----1---1-----1---1-----1---1-----1---1----|
G|--0h2---2-----2---2-----2---2-----2---2-----1---1-----1---1-----1---1-----1---1------|
D|-------------------------------------------------------------------------------------|
A|-------------------------------------------------------------------------------------|
E|-------------------------------------------------------------------------------------|

[1:51-2:01]
    C/G                                     C/F
e|----------0---------0---------0---------0---------0---------0---------0---------0----|
B|----1---1-----1---1-----1---1-----1---1-----1---1-----1---1-----1---1-----1---1------|
G|--0---0-----0---0-----0---0-----0---0------------------------------------------------|
D|------------------------------------------3---3-----3---3-----3---3-----3---3--------|
A|-------------------------------------------------------------------------------------|
E|-------------------------------------------------------------------------------------|


[Chorus 2]
[2:01-2:11]
    C/F                                     C/G
e|----------0---------0---------0---------0---------0---------0---------0---------0----|
B|----1---1-----1---1-----1---1-----1---1-----1---1-----1---1-----1---1-----1---1------|
G|-------------------------------------------------------------------------------------|
D|--3---3-----3---3-----3---3-----3---3-----2---2-----2---2-----2---2-----2---2--------|
A|-------------------------------------------------------------------------------------|
E|-------------------------------------------------------------------------------------|

[2:11-2:21]
    C/F                                     C/G
e|----------0---------0---------0---------0---------0---------0---------0---------0----|
B|----1---1-----1---1-----1---1-----1---1-----1---1-----1---1-----1---1-----1---1------|
G|-------------------------------------------------------------------------------------|
D|--3---3-----3---3-----3---3-----3---3------------------------------------------------|
A|------------------------------------------3---3-----3---3-----3---3-----3---3--------|
E|-------------------------------------------------------------------------------------|

[2:21-2:32]
    C/F                                     C/G
e|----------0---------0---------0---------0---------0---------0---------0---------0----|
B|----1---1-----1---1-----1---1-----1---1-----1---1-----1---1-----1---1-----1---1------|
G|-------------------------------------------------------------------------------------|
D|--3---3-----3---3-----3---3-----3---3-----2---2-----2---2-----2---2-----2---2--------|
A|-------------------------------------------------------------------------------------|
E|-------------------------------------------------------------------------------------|

[2:32-2:36]
    C/F                                     
e|----------0---------0---------0------------------------------------------------------|
B|----1---1-----1---1-----1---1-----1---1----------------------------------------------|
G|-------------------------------------------------------------------------------------|
D|--3---3-----3---3-----3---3-----3---3------------------------------------------------|
A|-------------------------------------------------------------------------------------|
E|-------------------------------------------------------------------------------------|


[Bridge]
[2:36-2:46]
    Am                  G                   G#        G#m       Am        G
e|-------------------------------------------------------------------------------------|
B|----1---1-1---1---1-0---0---0-0---0--------------------------------------------------|
G|--------------------------------------2/4---5---5-5---4---4-4---5---5-5---4---4-4----|
D|-------------------------------------------------------------------------------------|
A|--0---0-----0---0--------------------------------------------------------------------|
E|----------------------3---3-----3---3-----4---4-----4---4-----5---5-----3---3--------|

[2:46-2:56]
    F                   B/F#                G                   Am        G         F
e|-------------------------------------------------------------------------------------|
B|-------------------------------------------------------------------------------------|
G|----2---2-2---2---2-2---4---4-4---4---2/4---4---4-4---4---4-4---5---5-5---4---4-4\2--|
D|-------------------------------------------------------------------------------------|
A|-------------------------------------------------------------------------------------|
E|--1---1-----1---1-----2---2-----2---2-----3---3-----3---3-----5---5-----3---3--------|

[2:56-3:05]
    F                           E           Am    
e|-------------------------------------------------------------------------------------|
B|-------------------------------------------------------------------------------------|
G|----2---2-2---2---2-2---2---2-1---1---1-1---5---5-5---5---5-5---5---5----------------|
D|-------------------------------------------------------------------------------------|
A|-------------------------------------------------------------------------------------|
E|--1---1-----1---1-----1---1-----0---0-----5---5-----5---5-----5---5------------------|

[3:05-3:12]

e|-------------------------------------------------------------------------------------|
B|-------------------------------------------------------------------------------------|
G|-------------------------------------------------------------------------------------|
D|--------------2--------2--------2--------2-------------------------------------------|
A|--------0-3-2----0-3-2----0-3-2----0-3-2---------------------------------------------|
E|--2-3-4------------------------------------------------------------------------------|


[Verse 3]
[3:12-3:22]

e|-------------------------------------------------------------------------------------|
B|-------------------------------------------------------------------------------------|
G|-------------------------------------------------------------------------------------|
D|--------2--------2--------2--------2--------2--------2--------2--------2-------------|
A|--0-3-2----0-3-2----0-3-2----0-3-2------3-2------3-2------3-2------3-2---------------|
E|--------------------------------------4--------4--------4--------4-------------------|

[3:22-3:31]

e|-------------------------------------------------------------------------------------|
B|-------------------------------------------------------------------------------------|
G|-------------------------------------------------------------------------------------|
D|----0---2---0---2---0---2---0---2---0---2---0---2---0---2---0---2--------------------|
A|------3-------3-------3-------3-------3-------3-------3-------3----------------------|
E|--3-------3-------3-------3-------1-------1-------1-------1--------------------------|

[3:31-3:41]

e|-------------------------------------------------------------------------------------|
B|-------------------------------------------------------------------------------------|
G|-------------------------------------------------------------------------------------|
D|--------2--------2--------2--------2--------2--------2--------2--------2-------------|
A|--0-3-2----0-3-2----0-3-2----0-3-2------3-2------3-2------3-2------3-2---------------|
E|--------------------------------------4--------4--------4--------4-------------------|


[3:41-3:51]

e|-------------------------------------------------------------------------------------|
B|-------------------------------------------------------------------------------------|
G|-------------------------------------------------------------------------------------|
D|----0---2---0---2---0---2---0---2---0---2---0---2---0---2---0---2--------------------|
A|------3-------3-------3-------3-------3-------3-------3-------3----------------------|
E|--3-------3-------3-------3-------1-------1-------1-------1--------------------------|

[3:51-4:00]

    F                                       C/G
e|-------------------------------------------------------------------------------------|
B|----------1---------1---------1---------1---------1---------1---------1---------1----|
G|----------2---------2---------2---------2---------0---------0---------0---------0----|
D|----3---3-----3---3-----3---3-----3---3-----2---2-----2---2-----2---2-----2---2------|
A|--3---3-----3---3-----3---3-----3---3-----3---3-----3---3-----3---3-----3---3--------|
E|-------------------------------------------------------------------------------------|


[Chorus 3]
[4:00-4:10]
   
    F                                     C/G
e|-------------------------------------------------------------------------------------|
B|----------1---------1---------1---------1---------1---------1---------1---------1----|
G|----------2---------2---------2---------2---------0---------0---------0---------0----|
D|----3---3-----3---3-----3---3-----3---3-----2---2-----2---2-----2---2-----2---2------|
A|--3---3-----3---3-----3---3-----3---3-----3---3-----3---3-----3---3-----3---3--------|
E|-------------------------------------------------------------------------------------|

[4:10-4:20]

    F                                       C/G
e|-------------------------------------------------------------------------------------|
B|----------1---------1---------1---------1---------1---------1---------1---------1----|
G|----------2---------2---------2---------2---------0---------0---------0---------0----|
D|----3---3-----3---3-----3---3-----3---3-----2---2-----2---2-----2---2-----2---2------|
A|--3---3-----3---3-----3---3-----3---3-----3---3-----3---3-----3---3-----3---3--------|
E|-------------------------------------------------------------------------------------|

[4:20-4:26]
   F

e|-------------------------------------------------------------------------------------|
B|----------1---------1-------1-------1------------------------------------------------|
G|----------2---------2-------2-------2------------------------------------------------|
D|----3---3-----3---3-----3-------3----------------------------------------------------|
A|--3---3-----3---3-----3---3---3---3--------------------------------------------------|
E|-------------------------------------------------------------------------------------|


[Bridge]
[4:26-4:36]
    Am                  G                   G#        G#m       Am        G
e|-------------------------------------------------------------------------------------|
B|----1---1-1---1---1-0---0---0-0---0--------------------------------------------------|
G|--------------------------------------2/4---5---5-5---4---4-4---5---5-5---4---4-4----|
D|-------------------------------------------------------------------------------------|
A|--0---0-----0---0--------------------------------------------------------------------|
E|----------------------3---3-----3---3-----4---4-----4---4-----5---5-----3---3--------|

[4:36-4:45]
    F                   B/F#                G                   Am        G         F
e|-------------------------------------------------------------------------------------|
B|-------------------------------------------------------------------------------------|
G|----2---2-2---2---2-2---4---4-4---4---2/4---4---4-4---4---4-4---5---5-5---4---4-4\2--|
D|-------------------------------------------------------------------------------------|
A|-------------------------------------------------------------------------------------|
E|--1---1-----1---1-----2---2-----2---2-----3---3-----3---3-----5---5-----3---3--------|

[4:45-4:55]
    F                           E           Am    
e|-------------------------------------------------------------------------------------|
B|-------------------------------------------------------------------------------------|
G|----2---2-2---2---2-2---2---2-1---1---1-1---5---5-5---5---5-5---5---5----------------|
D|-------------------------------------------------------------------------------------|
A|-------------------------------------------------------------------------------------|
E|--1---1-----1---1-----1---1-----0---0-----5---5-----5---5-----5---5------------------|


[Instrumental]

Am E/G# G D/F# F Amadd2 E


[Verse 4]

Am               E/G#
Love is all that bloomed
G               D/F#
Always what you do
F            Amadd2
Never let someone go or they...
E                        Am
I ain't never loved like you
     E/G#
I've never loved 
     G
I've never loved
     D/F#                         F
I've never loved another like you
     Amadd2
I've never loved
     E
I've never loved
     Am  E/G# G D/F# 
I've never loved
F      
Never loved
Amadd1
I've never loved
E
I've never loved


e|--x-x-x-x-x-x-x-x-x-x-x-x-x--|
B|--x-x-x-x-x-x-x-x-x-x-x-x-x--|
G|--x-x-x-x-x-x-x-x-x-x-x-x-x--|
D|--x-x-x-x-x-x-x-x-x-x-x-x-x--|
A|--8-8-7-7-5-5-3-3-2-2-x-x-x--|
E|--x-x-x-x-x-x-x-x-x-x-5-4-5--|
            
Submit corrections


        My Favourite Faded Fantasy  lessons Hard to play? Try these video lessons and learn fast My Favourite Faded Fantasy  lessons
        
↑ Back to top | Tablatures and chords for acoustic guitar and electric guitar, ukulele, drums are parodies/interpretations of the original songs. You may use it for private study, scholarship, research or language learning purposes only