» » »

Damien Rice - I Dont Want To Change You Tabs

Artists:  A B C D E F G H I J K L M N O P Q R S T U V W X Y Z # 

I Dont Want To Change You Tabs

(ver. 1) Click to play this song!
Damien Rice
 Rating:
4/5 (4 votes)

 I Dont Want To Change You  lessons Tabs too difficult? Try these video lessons and learn fast
 
                Intro and verse:

wherever you are
you know that i adore you
no matter how far
well, i can go before you
and if ever you need someone
well, not that you need helping
but if ever you want someone
know that i am willing

e|--0--7--x---0--x----------------------------------------------------------|
b|--8--7--8---3--8----------------------------------------------------------|
g|--9--7--9---0--0----------------------------------------------------------|
d|--9--9--10--4--x----------------------------------------------------------|
a|--7--9--10--5--9----------------------------------------------------------|
e|--0--7--8---x--10---------------------------------------------------------|

Chorus:

i don’t want to change you
i don’t want to change your mind
i just came across a manger
out among the danger
somewhere in a stranger’s eye

e|--x--x--0--0-----x--x--0--0--------------------------------------------------|
b|--8--3--3--0-----8--3--3--1--------------------------------------------------|
g|--9--4--0--0-----9--4--0--0--------------------------------------------------|
d|--10-5--4--5-----10-5--4--2--------------------------------------------------|
a|--10-5--5--7-----10-5--5--3--------------------------------------------------|
e|--8--3--5--0-----8--3--5--3--------------------------------------------------|

Verse:

wherever you go
well, i can always follow
i can feed this real slow
if it’s a lot to swallow
and if you just want to be alone
well, i can wait without waiting
if you want me to let this go
well, i’m more than willing

e|--0--7--x--x-----0--7--x--x-----------------------------------------------|
b|--8--7--8--8-----8--7--8--8-----------------------------------------------|
g|--9--7--9--0-----9--7--9--0-----------------------------------------------|
d|--9--9--10-x-----9--9--10-x-----------------------------------------------|
a|--7--9--10-9-----7--9--10-9-----------------------------------------------|
e|--0--7--8--10----0--7--8--10----------------------------------------------|

Chorus:

cause i don’t want to change you
i don’t want to change your mind
i just came across a manger
out among the danger
somewhere in a stranger’s eye
i don’t want to change you
i don’t want to change your mind
i just came across a manger
out among the danger
somewhere in a stranger’s eye

i don’t want to change you
i don’t want to change your mind
i just came across a manger
out among the danger
somewhere in a stranger’s eye

e|--x--x--0--0----x--x--0--0----x--x--0--0----x--x--0----------------------------------------------------|
b|--8--3--3--0----8--3--3--0----8--3--3--0----8--3--3----------------------------------------------------|
g|--9--4--0--0----9--4--0--0----9--4--0--0----9--4--0----------------------------------------------------|
d|--10-5--4--5----10-5--4--5----10-5--4--5----10-5--4----------------------------------------------------|
a|--10-5--5--7----10-5--5--7----10-5--5--7----10-5--5----------------------------------------------------|
e|--8--3--5--0----8--3--5--0----8--3--5--0----8--3--5----------------------------------------------------|

Bridge:

i’ve never been with anyone
in the way i’ve been with you
but if love is not for fun
then it’s doomed
cause water races
water races down the waterfalls
water races
water races down the waterfall

e|--0--0--0--2--------------------------------------------------------------|
b|--1--3--1--3--------------------------------------------------------------|
g|--2--0--0--2--------------------------------------------------------------|
d|--2--4--2--0--------------------------------------------------------------|
a|--0--5--0--0--------------------------------------------------------------|
e|--x--5--x--x--------------------------------------------------------------|

e|--3--0--2--0--0------3--0--2--0--0---------------------------------------------------------|
b|--0--3--0--1--3------0--3--0--1--3---------------------------------------------------------|
g|--0--2--0--0--0------0--2--0--0--0---------------------------------------------------------|
d|--0--0--2--2--4------0--0--2--2--4---------------------------------------------------------|
a|--2--x--2--3--5------2--x--2--3--5---------------------------------------------------------|
e|--3--2--0--3--5------3--2--0--3--5---------------------------------------------------------|

Chorus:

i don’t want to change you
i don’t want to change your mind
i just came across a manger
where there is no the danger
where love has eyes and is not blind

e|--x---x--0--0-----x---x--0--0-----------------------------------------------|
b|--8---3--3--0-----8---3--3--1-----------------------------------------------|
g|--9---4--0--0-----9---4--0--0-----------------------------------------------|
d|--10--5--4--5-----10--5--4--2-----------------------------------------------|
a|--10--5--5--7-----10--5--5--3-----------------------------------------------|
e|--8---3--5--0-----8---3--5--3-----------------------------------------------|

Outro:

e|--0--7--x---0-------------------------------------------------------------|
b|--8--7--8---3-------------------------------------------------------------|
g|--9--7--9---0-------------------------------------------------------------|
d|--9--9--10--4-------------------------------------------------------------|
a|--7--9--10--5-------------------------------------------------------------|
e|--0--7--8---x-------------------------------------------------------------|            
Submit corrections


        I Dont Want To Change You  lessons Hard to play? Try these video lessons and learn fast I Dont Want To Change You  lessons
        
↑ Back to top | Tablatures and chords for acoustic guitar and electric guitar, ukulele, drums are parodies/interpretations of the original songs. You may use it for private study, scholarship, research or language learning purposes only