» » »

Daft Punk - Robot Rock Bass

Artists:  A B C D E F G H I J K L M N O P Q R S T U V W X Y Z # 

Robot Rock Bass

(ver. 1) Click to play this song!
Daft Punk
 Rating:
4/5 (4 votes)
    Robot Rock lessons Tabs too difficult? Try these video lessons and learn fast
                Note: This song is actually a sample from "Release the Beast" by Breakwater

Standard Tuning (EADG)
I use a Big Muff fuzzbox with the tone down and the distortion at about halfway. But you 
have to use a pedal if you don't want (or if you don't have one).

Intro (after drums) x5
g|-----------------------------|
d|-----------------------------|
a|--5--5--5--5--5--5--5--5-3---|
e|-----------------------------|

Then...
g|---------------|
d|--0-----0-0-0--|
a|--5-----5-5-5--|
e|---------------|

or

g|----------------------|
d|----------------------|
a|----------------------|
e|--10-----10-10-10-----|

This goes on for most of the song except at these parts...

Part at 0:57
g|---------------------|
d|---------------------|
a|--5-3-5-3-5-3-5-3~---|
e|---------------------|

Part at 1:36 x3
g|-------------|
d|-------------|
a|--5-5-3------|
e|--------3-1--|

Part at 2:11-2:44 and 3:54-4:10 (it gets goofy so play it however, but this is what I do)
g|---------------|
d|---------------|
a|--5-----5-5-5--|
e|---------------|
   PM-        -  -  -

Part at 3:19 x7 (on seventh time let last note ring)
g|----------------|
d|----------------|
a|--5----5-3-5----|
e|----------------|

And that's how it's played. It's an awesome song, and easy to learn.
            
Submit corrections

↑ Back to top | Tablatures and chords for acoustic guitar and electric guitar, ukulele, drums are parodies/interpretations of the original songs. You may use it for private study, scholarship, research or language learning purposes only