» » »

Daft Punk - Human After All Tabs

Artists:  A B C D E F G H I J K L M N O P Q R S T U V W X Y Z # 

Human After All Tabs

(ver. 4) Click to play this song!
Daft Punk
 Rating:
4.3/5 (22 votes)

 Human After All lessons Tabs too difficult? Try these video lessons and learn fast
 
                Tuning: Drop D

[Literally all the chords in the song]

e|---------------------------------------------------------------------------|
B|---------------------------------------------------------------------------|
G|--4--4---4--4---4--4---4--4------------------------------------------------|
D|--4--4---4--4---4--4---4--4---0--0---0--0---0--0---0--0--------------------|
A|--2--2---2--2---2--2---2--2---0--0---0--0---0--0---0--0--------------------|
D|------------------------------0--0---0--0---0--0---0--0--------------------|

e|---------------------------------------------------------------------------|
B|---------------------------------------------------------------------------|
G|---------------------------------------------------------------------------|
D|--2--2---2--2---2--2---2--2---5--5--5--5---7--7---7--7---------------------|
A|--2--2---2--2---2--2---2--2---5--5--5--5---7--7---7--7---------------------|
D|--2--2---2--2---2--2---2--2---5--5--5--5---7--7---7--7---------------------|
            
Submit corrections


        Human After All lessons Hard to play? Try these video lessons and learn fast Human After All lessons
        
↑ Back to top | Tablatures and chords for acoustic guitar and electric guitar, ukulele, drums are parodies/interpretations of the original songs. You may use it for private study, scholarship, research or language learning purposes only