Home » D » Daft Punk »

Daft Punk - Face To Face Tabs

Artists:  A B C D E F G H I J K L M N O P Q R S T U V W X Y Z # 

Face To Face Tabs

(ver. 1) Click to play this song!
Daft Punk
 Rating:
4.3/5 (13 votes)
                [Intro]

e|---------4--------------------------|
B|------------------------------------|
G|------------------------------------|
D|-4h6-6-6---6-6----6-6-6-6p4---------| x8
A|----------------------------6-------|
E|------------------------------7b-7b-|

 @ 0:40       P.M.
e|---6h7p6-----------|
B|-5-------7---------|
G|-------------------|
D|------------2-2----| x4
A|------------2-2----|
E|------------0-0----|

e|---------4--------------------------|
B|------------------------------------|
G|------------------------------------|
D|-4h6-6-6---6-6----6-6-6-6p4---------| x4
A|----------------------------6-------|
E|------------------------------7b-7b-|


[Verse]

G#5
What's going on?
F#5
Could this be my understanding
E5                        F#5 
It's not your fault I was being too demanding
G#5                  F#5
I must admit it's my pride that made me distant
E5                        F#5
All because I hoped that you'd be someone different
E5
**Play this part of the main riff for each line from "There's not much..." to "...face to face"
              P.M.
e|---6h7p6-----------|
B|-5-------7---------|
G|-------------------|
D|------------2-2----| x4
A|------------2-2----|
E|------------0-0----|
                
There's not much I know about you
                   
Fear will always make you blind
      
But the answer is in clear view
         
It's amazing what you'll find face to face

[Interlude]

e|---------4--------------------------|
B|------------------------------------|
G|------------------------------------|
D|-4h6-6-6---6-6----6-6-6-6p4---------| x8
A|----------------------------6-------|
E|------------------------------7b-7b-|

[Verse]

G#5                     F#5
I turned away because I thought you were the problem
E5       N.C.         F#5
Tried to forget until I hit the bottom
G#5                     F#5
But when I faced you in my blank confusion
E5                          F#5  
I realized you weren't wrong, it was a mere illusion
E5
**Play this part of the main riff for each line from "It really..." to "...face to face"
              P.M.
e|---6h7p6-----------|
B|-5-------7---------|
G|-------------------|
D|------------2-2----| x4
A|------------2-2----|
E|------------0-0----|
  
It really didn't make sense
          
Just to leave this unresolved
          
It's not hard to go the distance
         
when you finally get involved face to face

[Interlude]

e|---------4--------------------------|
B|------------------------------------|
G|------------------------------------|
D|-4h6-6-6---6-6----6-6-6-6p4---------| x6
A|----------------------------6-------|
E|------------------------------7b-7b-|
             P.M.
e|---6h7p6-----------|
B|-5-------7---------|
G|-------------------|
D|------------2-2----| x4
A|------------2-2----|
E|------------0-0----|

e|---------4--------------------------|
B|------------------------------------|
G|------------------------------------|
D|-4h6-6-6---6-6----6-6-6-6p4---------| x4
A|----------------------------6-------|
E|------------------------------7b-7b-|

[Outro]
**Play this part of the main riff for each line from "It really..." to "get involved"

              P.M.
e|---6h7p6-----------|
B|-5-------7---------|
G|-------------------|
D|------------2-2----| x4
A|------------2-2----|
E|------------0-0----|
  
It really didn't make sense
          
Just to leave this unresolved
          
It's not hard to go the distance
                              N.C.
when you finally get involved face to face            
Submit corrections

↑ Back to top | Tablatures and chords for acoustic guitar and electric guitar, ukulele, drums are parodies/interpretations of the original songs. You may use it for private study, scholarship, research or language learning purposes only