» » »

Cypress Hill - When S Goes Down Tabs

Artists:  A B C D E F G H I J K L M N O P Q R S T U V W X Y Z # 

When S Goes Down Tabs

(ver. 1) Click to play this song!
Cypress Hill
 Rating:
4/5 (4 votes)
    When S Goes Down lessons Tabs too difficult? Try these video lessons and learn fast
                Another Cypress Hill song, this is the bassline arannged for guitar

------------------
------------------
------------------
------------------
7--7---------5--6-
-------7--7-------

------------------
------------------
------------------
------------------
7--7---------5--6-
-------7--7-------

------------------
------------------
------------------
------------------
7--7---------5--6-
-------7--7-------

------------------
------------------
------------------
------------------
7--7---------5--6-
-------7--7-------

Play through like that
            
Submit corrections

↑ Back to top | Tablatures and chords for acoustic guitar and electric guitar, ukulele, drums are parodies/interpretations of the original songs. You may use it for private study, scholarship, research or language learning purposes only