» » »

Cypress Hill - Illusions Tabs

Artists:  A B C D E F G H I J K L M N O P Q R S T U V W X Y Z # 

Illusions Tabs

(ver. 1) Click to play this song!
Cypress Hill
 Rating:
2/5 (28 votes)

 Illusions  lessons Tabs too difficult? Try these video lessons and learn fast
 
                1. Main melody arranged for one guitar

Guitar 1:
e|-------------5---------6----------6----|
B|-3-------------------------------------|
G|---------------7-6-------77-6-------66-|
D|---3-2-3-0-3-------5-4--------5-4------|
A|---------------------------------------|
E|---------------------------------------|

2. Main melody arranged for two guitars

Guitar 1:
e|-------------5---------6----------6----|
B|-3-------------------------------------|
G|---------------7-6-------77-6-------66-|
D|---------------------------------------|
A|---------------------------------------|
E|---------------------------------------|

Guitar 2:
e|---------------------------------------|
B|---------------------------------------|
G|---------------------------------------|
D|---3-2-3-0-3-2-3---5-4--5-----5-4--5---|
A|---------------------------------------|
E|---------------------------------------|
            
Submit corrections


        Illusions  lessons Hard to play? Try these video lessons and learn fast Illusions  lessons
        
↑ Back to top | Tablatures and chords for acoustic guitar and electric guitar, ukulele, drums are parodies/interpretations of the original songs. You may use it for private study, scholarship, research or language learning purposes only