» » »

Cypress Hill - From The Window Of My Room Tabs

Artists:  A B C D E F G H I J K L M N O P Q R S T U V W X Y Z # 

From The Window Of My Room Tabs

(ver. 1) Click to play this song!
Cypress Hill
 Rating:
4/5 (4 votes)

 From The Window Of My Room  lessons Tabs too difficult? Try these video lessons and learn fast
 
                Violin riff

e|----2-3-5-3-2---------2----------------------------------------------------|
B|--4-----------4-3-3-4---4--------------------------------------------------|
G|--------------------------4------------------------------------------------|
D|---------------------------------------------------------------------------|
A|---------------------------------------------------------------------------|
E|---------------------------------------------------------------------------|


Pizzicato riff [that one playing over the violin riff]
Just repeat it over and over

e|--9-12-9-12-11~---8~---8-11-8-11-12~---9~----------------------------------|
B|---------------------------------------------------------------------------|
G|---------------------------------------------------------------------------|
D|---------------------------------------------------------------------------|
A|---------------------------------------------------------------------------|
E|---------------------------------------------------------------------------|            
Submit corrections


        From The Window Of My Room  lessons Hard to play? Try these video lessons and learn fast From The Window Of My Room  lessons
        
↑ Back to top | Tablatures and chords for acoustic guitar and electric guitar, ukulele, drums are parodies/interpretations of the original songs. You may use it for private study, scholarship, research or language learning purposes only