Home » C » Cutting Crew »

Cutting Crew - (I Just) Died In Your Arms Bass

Artists:  A B C D E F G H I J K L M N O P Q R S T U V W X Y Z # 

(I Just) Died In Your Arms Bass

(ver. 1) Click to play this song!
Cutting Crew
(I Just) Died In Your Arms
Song written by Nick Van Eede, recorded & released by Cutting Crew in
1986 reaching number 4 in UK and number 1 in USA, Canada, Finland and
Norway. Original bassist Colin Farley. Tab by bass50611. Think its more

Intro (Single notes over orchestral strings/Vocals):
G|------------|----------------------------------------------------|
D|--NO BASS---|----------------------------------------------------|
A|-FIRST PART-|----------------------------------------------------|
E|------------|-7------0------5------2------7------0------5------r-|

G|---------------------------|
D|---------------------------|
A|-2-22---2-22---2-22---2-22-|
E|---------------------------|

Verse:                                   (PLAY VERSE x2))
G|------------------------------------------------------|
D|------------------------------------------------------|
A|-2-22---2-22------------------------------------------|
E|--------------3-33---3-33---5-55---5-55---2-22---2-22-|

Chorus 1:                          (PLAY CHORUS x2)
G|-------------------------------------------------|
D|-------------------------------------------------|
A|------7-77--------------2-22---------------------|
E|-7-77------5-55---2-22--------0-00---5-55---2-22-|

Interlude:                                 .
G|---------------------------------------2-4-|
D|-------------------------------------4-----|
A|--------------2-22---2-22---2-22---2-------|
E|-3-33---3-33-------------------------------|

Repeat Verse & Repeat Chorus 1:

Bridge:
G|-----------------------------------------------------|
D|----------------2------------------------------------|
A|-------------2-4--4-2--------------------------------|
E|-3------0---4---------4-0---3------22222222-22222222-|

Solo:                                                 .
G|------------------------------------------------------|
D|------------------------------------------------------|
A|------7-77--------------2-22------------------------2-|
E|-7-77------5-55---2-22--------0-00---5-55---2-22------|

Orchestral Break: (Originally No Bass But Part of Intro Will Fit)

Chorus 2:
G|------------------------------------------------------------|
D|----------------------------------------------4-2-----------|
A|------7-77--------------2-22----------------------4-2-0-----|
E|-7-77------5-55---2-22--------0-00---5-55---2-----------4-2-|

Final Chorus:
G|--------------------------------------------------|
D|-----------------------------------66-9-7-77------|
A|-2-22---------------------------77-----------9-99-|
E|------0-00---5-55---2-22---7-77-------------------|

             (REPEAT THIS BIT TO FADE/END
G|-------------------------|
D|-------------------------|
A|-2-22------2-------------|
E|------00-4---5-55---2-22-|

And thats it, great song
            
Submit corrections

↑ Back to top | Tablatures and chords for acoustic guitar and electric guitar, ukulele, drums are parodies/interpretations of the original songs. You may use it for private study, scholarship, research or language learning purposes only