Home » C » Current Swell »

Current Swell - Young And Able Live Tabs

Artists:  A B C D E F G H I J K L M N O P Q R S T U V W X Y Z # 

Young And Able Live Tabs

(ver. 1) Click to play this song!
Current Swell
Main Riff x2

Main Riff x4 (one per line)
Hey my baby well aint that nice,
Turn a lifestyle into a paradise.
Living on the beach and eating fish everyday,
Sipping from the fruit from the juice that she made and


F                  Bb
She loves me now, why wouldnt she,
F                      Bb
I love my baby and my baby loves me.
F                         Bb
Loves me now, because Im young and able,
F                         Bb
Well, loves me for what I bring to the table.


Main Riff x4 (one per line)
Shes on the top and Im on the low,
Ill take her anywhere that she would want to go,
Let me know if Ive crossed the line,
I said taking it slow is just a waste of our time.

F                  Bb
She loves me now, why wouldnt she,
F                      Bb
I love my baby and my baby loves me.
F                         Bb
Loves me now, because Im young and able,
F                         Bb
Well, loves me for what I bring to the table.

F                     C
Thank you maam, well I adore,
Dm                             Bb
This aint the first time Ive been here before.
F                   C
Getting easier with every task ,
Dm                            Bb
Its not the first time and it wont be the last.
F                   C
Thank you maam for what youve done,
Dm                                    Bb
I know now where Im going cause Ive found just where Im from.
F                   C
Getting easier with every task,
Dm                            Bb
Its not the first time and it wont be the last.

Main Riff x2 as Bridge

Main Riff x8 (one per line)
Everybody wants a piece of the pie,
Its easier now if you justify,
Your home is where you make it, You make it where you live.
You dont get what you want and you dont get what you give.
Coffee in the morning is what she would make and
In the afternoon you know were feeling the break,
You know were feeling the break, you know were feeling the break.
You dont get what you want but you can get what you take.


F                  Bb
She loves me now, why wouldnt she,
F                      Bb
I love my baby and my baby loves me.
F                        Bb
Loves me now, because Im young and able,
F                         Bb
Well, loves me for what I bring to the table.

F                    C
Thank you maam, well I adore,
Dm                           Bb
This aint the first time Ive been here before.
F                   C
Getting easier with every task ,
Dm                            Bb
Its not the first time and it wont be the last.
F                  C
Thank you maam for what youve done,
Dm                                  Bb
I know now where Im going cause Ive found just where Im from.
F                   C
Getting easier with every task,
Dm                            Bb
Its not the first time and it wont be the last
(Hold the last Dm and Bb, don't strum them)

End Solo
E|------------------------------------------|
B|------------------------------------------|
G|----------------12^----------10-----------|
D|----------10h12------8-10/12----12-10-----|
A|--8-10/12-----------------------------12--| x4, crescendo
E|------------------------------------------|

E|----------------------------------------------------|
B|----------------------------------------------------|
G|---------10--------------5----------3/5--7-x--------|
D|---------10--------------5----------3/5--7-x--------|
A|-8-10/12----12/10--3-5/7---7p5/3--5------5-x--------|
E|----------------------------------------------------|

E|--------------------------------------------------------|
B|--------------------------------------------------------|
G|-----------------------------------------------3/5-7-x--|
D|---------3-5-------------------------5---------3/5-7-x--|
A|---1-3/5-----3---------3-------3-5/7---7p5-3-5-----5-x--|
E|-5-------------5-1-3/5---5p3-5--------------------------|

E|---------------------------------------------------------|
B|---------------------------------------------------------|
G|------------------------10~---------------------3/5-7-x--|
D|---------3--------------10~-----------5/7-------3/5-7-x--|
A|---1-3/5---5-3-/8-10/12-----12--3-5/7-----5/3-5-----5-x--|
E|-5-------------------------------------------------------|

E|-------------------------------------------------------------------------|
B|-------------------------------------------------------------------------|
G|-----------------------------------------------3/5-7-x-------------------|
D|---------3/5-------------------------5---------3/5-7-x-------------------|
A|---1-3/5-----3---------3-------3-5/7---7p5/3-5-----5-x-------------------|
E|---------------5-1-3/5---5-3-5--------------------------5-6--5-6-5-3/1---|

E|------------------------------------------|
B|------------------------------------------|
G|----------------12^----------10-----------|
D|----------10h12------8-10/12----12-10-----|
A|--8-10/12-----------------------------12--| x4, decrescendo
E|------------------------------------------|

E|-----------13---|
B|--------10------|
G|------10--------|
D|----10----------|
A|--8-------------|
E|----------------|            
Submit corrections

↑ Back to top | Tablatures and chords for acoustic guitar and electric guitar, ukulele, drums are parodies/interpretations of the original songs. You may use it for private study, scholarship, research or language learning purposes only