Home » C » Current-93 »

Current-93 - I Dreamt I Was Aeon Tabs

Artists:  A B C D E F G H I J K L M N O P Q R S T U V W X Y Z # 

I Dreamt I Was Aeon Tabs

(ver. 1) Click to play this song!
Current-93
 Rating:
3.6/5 (23 votes)
                e|------5----------------3-------------5----------------3------------|
B|--3------3--5-6-3--5-6----1------3------3--5-6-3--5-6----1---------|
G|-------------------------------------------------------------------|
D|--0-------------0----------------0-------------0-------------------|   
A|-------------------------------------------------------------------|
E|-------------------------------------------------------------------|

e|--5--7-8-10---------17--10-----------|
B|-------------8-----------------------|
G|-------------------------------------|
D|-------------------------------------|
A|--0----------------------------------|
E|-------------------------------------|
            
Submit corrections

↑ Back to top | Tablatures and chords for acoustic guitar and electric guitar, ukulele, drums are parodies/interpretations of the original songs. You may use it for private study, scholarship, research or language learning purposes only