Home » C » Cure »

Cure - Meathook Bass

Artists:  A B C D E F G H I J K L M N O P Q R S T U V W X Y Z # 

Meathook Bass

(ver. 1) Click to play this song!
Cure
[Intro]
G|-12--12--10--10-|-9--9--8--8-|-7--7--5--5-|-3--3--2--2-2/-|
D|----------------|------------|------------|---------------|
A|----------------|------------|------------|---------------|
E|----------------|------------|------------|---------------|
 
G|-12--12--10--10-|-9--9-9--8--8-|-7--7--5--5-|-3--3--2--2-2/-|
D|----------------|--------------|------------|---------------|
A|----------------|--------------|------------|---------------|
E|----------------|--------------|------------|---------------|
 
[Pre-Verse]
G|----------|-------------|----------|---5--3-5--3---|
D|-5--3-5---|-5-3--3-0-3--|-5--3-5---|-5-----------5-|
A|----------|-------------|----------|---------------|
E|----------|-------------|----------|---------------|
 
G|----------|-------------|----------|---5--3-5--3-|
D|-5--3-5---|-5-3--3-0-3--|-5--3-5---|-5-----------|
A|----------|-------------|----------|-------------|
E|----------|-------------|----------|-------------|
 
[Verse 1]
G|------------------------|------------------------|
D|------------------------|------------------------|
A|------------------------|------------------------|
E|-3--1-/3---3-1--1-0-1---|-3--1-/3----------------|
 
G|------------------------|------------------------|
D|------------------------|------------------------|
A|------------------------|------------------------|
E|-3--1-/3----------------|-3--1-/3----------------|
 
[Chorus 1]
G|-12--12--10--10-|-9--9--8--8-|-7--7--5--5-|-3--3--2--2-2/-|
D|----------------|------------|------------|---------------|
A|----------------|------------|------------|---------------|
E|----------------|------------|------------|---------------| x2
 
[Bridge 1]
G|---------------|---------------|---------------|---------------|
D|-5---5---------|-5---5------3--|-5---5---------|-5---5---------|
A|---------------|---------------|---------------|---------------|
E|---------------|---------------|---------------|---------------|
 
[Verse 2]
G|---------------|---------------|---------------|---------------|
D|---------------|---------------|---------------|---------------|
A|---------------|---------------|---------------|---------------|
E|-3-3-3---3-----|-3---3---------|-3--1-/3-------|-3--1-/3-------|
 
[Chorus 2]
G|-12--12--10--10-10-|-9--9--8--8-8-|-7--7--5--5-5-|-3--3--2--2-2/-|
D|-------------------|--------------|--------------|---------------|
A|-------------------|--------------|--------------|---------------|
E|-------------------|--------------|--------------|---------------| x2
 
[Bridge 2]
G|---------------|---------------|---------------|---------------|
D|-5--3-5--------|-5--3-5-5------|-5--3-5--------|-5--3-5-----3--|
A|---------------|---------------|---------------|---------------|
E|---------------|---------------|---------------|---------------|
 
[Verse 3]
G|-----------5---|-----------5---|-----------5---|---------------|
D|-5--3-5--------|-5--3-5--------|-5--3-5--------|-5--3-5----3-3-|
A|---------------|---------------|---------------|---------------|
E|---------------|---------------|---------------|---------------|
 
[Outro]
G|-12--12--10--10-10-|-9--9--8--8-8-|-7--7--5--5-5-|-3--3--2--2-2/-|
D|-------------------|--------------|--------------|---------------|
A|-------------------|--------------|--------------|---------------|
E|-------------------|--------------|--------------|---------------| x3
 
G|-12--12--10--10-|-9--9--8--8-|-7--7--5--5-|-3--3--3--2--2--2--12-|
D|----------------|------------|------------|----------------------|
A|----------------|------------|------------|----------------------|
E|----------------|------------|------------|----------------------|
            
Submit corrections

↑ Back to top | Tablatures and chords for acoustic guitar and electric guitar, ukulele, drums are parodies/interpretations of the original songs. You may use it for private study, scholarship, research or language learning purposes only