Home » C » Cure »

Cure - Esten Live Bass

Artists:  A B C D E F G H I J K L M N O P Q R S T U V W X Y Z # 

Esten Live Bass

(ver. 1) Click to play this song!
Cure
[Riff 1 - chord progression is B/G/A/A, played 'high']
 
G|----------------|----------------|--------------9-|--9---9---9-9---|
D|9---9---9-9---5-|--5---5---5-5---|7---7---7-7-----|----------------|
A|----------------|----------------|----------------|----------------|
E|----------------|----------------|----------------|----------------|
 
G|----------------|----------------|--------------9-|--9---9-9-9-9---|
D|9---9---9-9---5-|--5---5---5-5---|7---7---7-7-----|----------------|
A|----------------|----------------|----------------|----------------|
E|----------------|----------------|----------------|----------------|
 
G|----------------|----------------|--------------9-|--9---9---9-9---|
D|9---9---9-9---5-|--5---5---5-5---|7---7---7-7-----|----------------|
A|----------------|----------------|----------------|----------------|
E|----------------|----------------|----------------|----------------|
 
G|----------------|----------------|--------------9-|--9---9-9-9-9---|
D|9---9---9-9---5-|--5---5---5-5---|7---7---7-7-----|----------------|
A|----------------|----------------|----------------|----------------|
E|----------------|----------------|----------------|----------------|
 
[Riff 2 - chord progression is B/G/A/A, played 'low' (down one octave)]
 
G|----------------|----------------|----------------|----------------|
D|----------------|----------------|--------------2-|--2---2---2-2---|
A|2---2---2-2-----|----------------|0---0---0-0-----|----------------|
E|--------------3-|--3---3---3-3---|----------------|----------------|
 
G|----------------|----------------|----------------|----------------|
D|----------------|----------------|--------------2-|--2---2-2-2-2---|
A|2---2---2-2-----|----------------|0---0---0-0-----|----------------|
E|--------------3-|--3---3---3-3---|----------------|----------------|
 
G|----------------|----------------|----------------|----------------|
D|----------------|----------------|--------------2-|--2---2---2-2---|
A|2---2---2-2-----|----------------|0---0---0-0-----|----------------|
E|--------------3-|--3---3---3-3---|----------------|----------------|
 
G|----------------|----------------|----------------|----------------|
D|----------------|----------------|--------------2-|--2---2-2-2-2---|
A|2---2---2-2-----|----------------|0---0---0-0-----|----------------|
E|--------------3-|--3---3---3-3---|----------------|----------------|
 
[Riff 3 - chord progression changes to F#/G/A/A]
 
G|----------------|----------------|--------------9-|--9---9---9-9---|
D|4---4---4-4---5-|--5---5---5-5---|7---7---7-7-----|----------------|
A|----------------|----------------|----------------|----------------|
E|----------------|----------------|----------------|----------------|
 
G|----------------|----------------|--------------9-|--9---9-9-9-9---|
D|4---4---4-4---5-|--5---5---5-5---|7---7---7-7-----|----------------|
A|----------------|----------------|----------------|----------------|
E|----------------|----------------|----------------|----------------|
 
G|----------------|----------------|--------------9-|--9---9---9-9---|
D|4---4---4-4---5-|--5---5---5-5---|7---7---7-7-----|----------------|
A|----------------|----------------|----------------|----------------|
E|----------------|----------------|----------------|----------------|
 
G|----------------|----------------|--------------9-|--9---9-9-9-9---|
D|4---4---4-4---5-|--5---5---5-5---|7---7---7-7-----|----------------|
A|----------------|----------------|----------------|----------------|
E|----------------|----------------|----------------|----------------|
            
Submit corrections

↑ Back to top | Tablatures and chords for acoustic guitar and electric guitar, ukulele, drums are parodies/interpretations of the original songs. You may use it for private study, scholarship, research or language learning purposes only