Home » C » Culture Club »

Culture Club - Ill Tumble 4 Ya Tabs

Artists:  A B C D E F G H I J K L M N O P Q R S T U V W X Y Z # 

Ill Tumble 4 Ya Tabs

(ver. 1) Click to play this song!
Culture Club
[Intro]

    G   F       F  Em
e|--10--8-------8--7---------------------------------------------------------|
B|--12--10------10-8---------------------------------------------------------|
G|--12--10------10-9---------------------------------------------------------|
D|--12--10------10-9----10-12-10--14-12-10-12-10-----------------------------|
A|--10--8-------8--7---------------------------------------------------------|
E|---------------------------------------------------------------------------|

    G   F       F  Em
e|--10--8-------8--7---------------------------------------------------------|
B|--12--10------10-8---------------------------------------------------------|
G|--12--10------10-9---------------------------------------------------------|
D|--12--10------10-9----10-12-10--14-12-10-12-10-----------------------------|
A|--10--8-------8--7---------------------------------------------------------|
E|---------------------------------------------------------------------------|


[Verse]

  Down town  we'll drown We're in our never splendor
    G   F       F  Em
e|--10--8-------8--7---------------------------------------------------------|
B|--12--10------10-8---------------------------------------------------------|
G|--12--10------10-9---------------------------------------------------------|
D|--12--10------10-9----10-12-10--14-12-10-12-10-----------------------------|
A|--10--8-------8--7---------------------------------------------------------|
E|---------------------------------------------------------------------------|

  Flo  wers   Sho wers Who's got the new boy gender?
    G   F       F  Em
e|--10--8-------8--7---------------------------------------------------------|
B|--12--10------10-8---------------------------------------------------------|
G|--12--10------10-9---------------------------------------------------------|
D|--12--10------10-9----10-12-10--14-12-10-12-10-----------------------------|
A|--10--8-------8--7---------------------------------------------------------|
E|---------------------------------------------------------------------------|


[Pre-Chorus]

I'll be your baby. I'll be your score. I'll run the gun for you. And so much more
    G               G                   G                            D7  D7  D7
e|--3---------------3-------------------3-----------------------------2---2---2-------|
B|--0---------------0-------------------0-----------------------------1---1---1-------|
G|--0---------------0-------------------0-----------------------------1---2---2-------|
D|--0---------------0-------------------0-----------------------------0---0---0-------|
A|--2---------------2-------------------2---------------------------------------------|
E|--3---------------3-------------------3---------------------------------------------|


[Chorus]

I'll tumble 4 ya 
            C     C    G  G    F    
e|----------8-----8----10-10---8------|
B|----------8-----8----12-12---10-----|
G|----------10----10---12-12---10-----|
D|----------10----10---12-12---10-----|       x 3
A|----------10----10---10-10---8------|
E|----------8-----8-------------------| 

I'll tumble 4 you 
            C     C    G  G    F    
e|----------8-----8----10-10---8------|
B|----------8-----8----12-12---10-----|
G|----------10----10---12-12---10-----|
D|----------10----10---12-12---10-----|
A|----------10----10---10-10---8------|
E|----------8-----8-------------------| 

I'll tumble 4 ya 
            C     C    G  G    F    
e|----------8-----8----10-10---8------|
B|----------8-----8----12-12---10-----|
G|----------10----10---12-12---10-----|
D|----------10----10---12-12---10-----|      x 3
A|----------10----10---10-10---8------|
E|----------8-----8-------------------|


I'll tumble...
            C     C      
e|----------8-----8-------|
B|----------8-----8-------|
G|----------10----10------|
D|----------10----10------|
A|----------10----10------|
E|----------8-----8-------| 


[Verse]

    Up town  their sound Is like the native You send her
    G   F       F  Em
e|--10--8-------8--7---------------------------------------------------------|
B|--12--10------10-8---------------------------------------------------------|
G|--12--10------10-9---------------------------------------------------------|
D|--12--10------10-9----10-12-10--14-12-10-12-10-----------------------------|
A|--10--8-------8--7---------------------------------------------------------|
E|---------------------------------------------------------------------------|

  Junc tion   Func tion The boy with pop is slender  
    G   F       F  Em
e|--10--8-------8--7---------------------------------------------------------|
B|--12--10------10-8---------------------------------------------------------|
G|--12--10------10-9---------------------------------------------------------|
D|--12--10------10-9----10-12-10--14-12-10-12-10-----------------------------|
A|--10--8-------8--7---------------------------------------------------------|
E|---------------------------------------------------------------------------|


[Pre-Chorus]

   Did he say maybe, or I'm not sure? He'll be a boy for you, but you need more
    G                G                   G                         D7  D7  D7
e|--3----------------3-------------------3-------------------------2---2---2-------|
B|--0----------------0-------------------0-------------------------1---1---1-------|
G|--0----------------0-------------------0-------------------------1---2---2-------|
D|--0----------------0-------------------0-------------------------0---0---0-------|
A|--2----------------2-------------------2-----------------------------------------|
E|--3----------------3-------------------3-----------------------------------------|


[Chorus]

I'll tumble 4 ya 
            C     C    G  G    F    
e|----------8-----8----10-10---8------|
B|----------8-----8----12-12---10-----|
G|----------10----10---12-12---10-----|
D|----------10----10---12-12---10-----|       x 3
A|----------10----10---10-10---8------|
E|----------8-----8-------------------| 

I'll tumble 4 you 
            C     C    G  G    F    
e|----------8-----8----10-10---8------|
B|----------8-----8----12-12---10-----|
G|----------10----10---12-12---10-----|
D|----------10----10---12-12---10-----|
A|----------10----10---10-10---8------|
E|----------8-----8-------------------| 

I'll tumble 4 ya 
            C     C    G  G    F    
e|----------8-----8----10-10---8------|
B|----------8-----8----12-12---10-----|
G|----------10----10---12-12---10-----|
D|----------10----10---12-12---10-----|      x 3
A|----------10----10---10-10---8------|
E|----------8-----8-------------------|


I'll tumble...
            C     C      
e|----------8-----8-------|
B|----------8-----8-------|
G|----------10----10------|
D|----------10----10------|
A|----------10----10------|
E|----------8-----8-------| 


I get A crazy feeling      That chases in my head    It's nothing that you do to me
e|---------3------3------|  e|---------3------3------|  e|---------3------3------|
B|---------3------3------|  B|---------3------3------|  B|---------3------3------|
G|---------4------4------|  G|---------4------4------|  G|---------4------4------|
D|-----------------------|  D|-----------------------|  D|-----------------------|
A|-----------------------|  A|-----------------------|  A|-----------------------|
E|-------3----3-3--------|  E|-------3----3-3--------|  E|-------3----3-3--------|

It's nothing that you said     It's love in stereo      And when I can't let go I say
   e|---------3------3------|  e|--------
   B|---------3------3------|  B|--------
   G|---------4------4------|  G|--12b--- let it ring
   D|-----------------------|  D|--------
   A|-----------------------|  A|--------
   E|-------3----3-3--------|  E|--------


[Pre-Chorus]

I'll be your baby. I'll be your score. I'll run the gun for you. And so much more
    G               G                   G                            D7  D7  D7
e|--3---------------3-------------------3-----------------------------2---2---2-------|
B|--0---------------0-------------------0-----------------------------1---1---1-------|
G|--0---------------0-------------------0-----------------------------1---2---2-------|
D|--0---------------0-------------------0-----------------------------0---0---0-------|
A|--2---------------2-------------------2---------------------------------------------|
E|--3---------------3-------------------3---------------------------------------------|


[Chorus]

ONLY DRUMS IN THIS CHORUS


[Verse]

  Down town  we'll drown We're in our never splendor
    G   F       F  Em
e|--10--8-------8--7---------------------------------------------------------|
B|--12--10------10-8---------------------------------------------------------|
G|--12--10------10-9---------------------------------------------------------|
D|--12--10------10-9----10-12-10--14-12-10-12-10-----------------------------|
A|--10--8-------8--7---------------------------------------------------------|
E|---------------------------------------------------------------------------|

  Flo  wers   Sho wers Who's got the new boy gender?
    G   F       F  Em
e|--10--8-------8--7---------------------------------------------------------|
B|--12--10------10-8---------------------------------------------------------|
G|--12--10------10-9---------------------------------------------------------|
D|--12--10------10-9----10-12-10--14-12-10-12-10-----------------------------|
A|--10--8-------8--7---------------------------------------------------------|
E|---------------------------------------------------------------------------|


[Pre-Chorus]

I'll be your baby. I'll be your score. I'll run the gun for you. And so much more
    G               G                   G                            D7  D7  D7
e|--3---------------3-------------------3-----------------------------2---2---2-------|
B|--0---------------0-------------------0-----------------------------1---1---1-------|
G|--0---------------0-------------------0-----------------------------1---2---2-------|
D|--0---------------0-------------------0-----------------------------0---0---0-------|
A|--2---------------2-------------------2---------------------------------------------|
E|--3---------------3-------------------3---------------------------------------------|


[Chorus]

I'll tumble 4 ya 
            C     C    G  G    F    
e|----------8-----8----10-10---8------|
B|----------8-----8----12-12---10-----|
G|----------10----10---12-12---10-----|
D|----------10----10---12-12---10-----|       x 3
A|----------10----10---10-10---8------|
E|----------8-----8-------------------| 

I'll tumble 4 you 
            C     C    G  G    F    
e|----------8-----8----10-10---8------|
B|----------8-----8----12-12---10-----|
G|----------10----10---12-12---10-----|
D|----------10----10---12-12---10-----|
A|----------10----10---10-10---8------|
E|----------8-----8-------------------| 

I'll tumble 4 ya 
            C     C    G  G    F    
e|----------8-----8----10-10---8------|
B|----------8-----8----12-12---10-----|
G|----------10----10---12-12---10-----|
D|----------10----10---12-12---10-----|      x 3
A|----------10----10---10-10---8------|
E|----------8-----8-------------------|


I'll tumble 4 you
            C     C      
e|----------8-----8-------|
B|----------8-----8-------|
G|----------10----10------|
D|----------10----10------|
A|----------10----10------|
E|----------8-----8-------| 


[Outro]

e|--------------------------------------------------------------------------|
B|--------------------------------------------------------------------------|
G|--------------------------------------------------------------------------|
D|----------------------------------------------------------------8--10-----|
A|-3---3----1---1-----3---3----6-5-3---3---3---1---1---3---3----------------|
E|---3--------1---------3----------------3-------1-------3------------------|
            
Submit corrections

↑ Back to top | Tablatures and chords for acoustic guitar and electric guitar, ukulele, drums are parodies/interpretations of the original songs. You may use it for private study, scholarship, research or language learning purposes only