Home » C » Crystal Castles »

Crystal Castles - Fainting Spells Tabs

Artists:  A B C D E F G H I J K L M N O P Q R S T U V W X Y Z # 

Fainting Spells Tabs

(ver. 1) Click to play this song!
Crystal Castles
-------------------------------------------------------------------------------
-------------------------------------------------------------------------------


Tuning: Standard

After 15 seconds of screaming and whatnot, in comes the bass
Other guitar can play it up an octave.
e|-------------------------------------------| Riff 1*
B|-------------------------------------------|
G|-------------------------------------------| Played 8 times alone,
D|-------------------------------------------| Then under next riff
A|----------8-8-8-8-8b9-b9-b9-b9-8-8-8-8-----|
E|--6-6-6-6----------------------------------|

Airy sounding bits next, try fading into the notes with your volume knob.

e|-----------------------------------------------------------------| Riff 2*
B|-------9b11~~~--------9-11~~9--------9-11~~11-9--------9b11--9---|
G|--10h11---------10-11----------10h11------------10h11---------10-| Twice
D|-----------------------------------------------------------------|
A|-----------------------------------------------------------------|
E|-----------------------------------------------------------------|


Gets heavy and this is played.
Portamento between the notes and plenty of vibrato.

e|------------------------------------|
B|-----11/14~13/14~~------------------| Riff 3a*
G|-/10~~-------------10~10/15~13/15~~-|
D|------------------------------------| once
A|------------------------------------|
E|------------------------------------|

e|------------------------------------|
B|------11/14~13/14~~-----------------| Riff 3b*
G|---11~~-------------10~~10/15~15/13-| 
D|------------------------------------| once
A|------------------------------------|
E|------------------------------------|

Riff 3a and 3b repeated for 8 bars.

Riff 1's played alone again.

e|-------------------------------------------| Riff 1*
B|-------------------------------------------|
G|-------------------------------------------| 
D|-------------------------------------------| 
A|----------8-8-8-8-8b9-b9-b9-b9-8-8-8-8-----|
E|--6-6-6-6----------------------------------|

Then back into
e|------------------------------------|
B|-----11/14~13/14~~------------------| Riff 3a*
G|-/10~~-------------10~10/15~13/15~~-|
D|------------------------------------| 
A|------------------------------------|
E|------------------------------------|

e|------------------------------------|
B|------11/14~13/14~~-----------------| Riff 3b*
G|---11~~-------------10~~10/15~15/13-| 
D|------------------------------------| 
A|------------------------------------|
E|------------------------------------|

Repeat :P
            
Submit corrections

↑ Back to top | Tablatures and chords for acoustic guitar and electric guitar, ukulele, drums are parodies/interpretations of the original songs. You may use it for private study, scholarship, research or language learning purposes only