Home » C » Crystal Castles »

Crystal Castles - Black Panther Tabs

Artists:  A B C D E F G H I J K L M N O P Q R S T U V W X Y Z # 

Black Panther Tabs

(ver. 1) Click to play this song!
Crystal Castles
Tuning: Standard

Finally thought I'd tab the lead part for all you CC fans out there.
I'm sure there are a few notes that are wrong or missing so I welcome
any corrections! :-D

Main Riff:

e-------10----------10---------8----------7--------|
B-10-10----10-10-10----10-10-8---10-10------8------|
G--------------------------------------10----------|
D--------------------------------------------------|
A--------------------------------------------------|
E--------------------------------------------------|

e-------15-------------------12--------------------|
B-13-13----13--12-12--13--------------8------------|
G------------------------9-9----9-9-7---9----------|
D--------------------------------------------------|
A--------------------------------------------------|
E--------------------------------------------------|

e-------10---------10----12-------------12-15------|
B-10-10----10-10------10----13-15-12-13-------15---|
G----------------9---------------------------------|
D--------------------------------------------------|
A--------------------------------------------------|
E--------------------------------------------------|

e-------15----12----------------15---12----15------|
B-13-13----13----13---13--12-----------------------|
G-----------------------------9----9----9----------|
D--------------------------------------------------|
A--------------------------------------------------|
E--------------------------------------------------|

Interlude:

e-------------------------|
B-12-12-12-12-12-12-12-12-|
G-------------------------|
D-------------------------|
A-------------------------|
E-------------------------|
                                                    _
e--------------------------------------------------  |
B-10-10-10-10-10-10-10-10-13-13-13-13--------------  |
G-------------------------------------9-9-9-9------  |
D--------------------------------------------------  |
A--------------------------------------------------  |
E--------------------------------------------------  |
                                                     |- x2
e--------------------------------------------------  |
B-10-10-10-10-10-10-10-10-15-15-15-15-12-12-12-12--  |
G--------------------------------------------------  |
D--------------------------------------------------  |
A--------------------------------------------------  |
E--------------------------------------------------  |
                                                    _|

Verse: "You're covered in the lotion..."

e-15-15-15-15-12-12-12-12-10-10-10-10-12-12-12-12--|
B--------------------------------------------------|
G--------------------------------------------------|
D--------------------------------------------------|
A--------------------------------------------------|
E--------------------------------------------------|

e-15-15-15-15-12-12-12-12-12-12-12-12-10-10-10-10--|
B--------------------------------------------------|
G--------------------------------------------------|
D--------------------------------------------------|
A--------------------------------------------------|
E--------------------------------------------------|


That's what I've come up with! Hope you guys like it! :-)

@ndy
            
Submit corrections

↑ Back to top | Tablatures and chords for acoustic guitar and electric guitar, ukulele, drums are parodies/interpretations of the original songs. You may use it for private study, scholarship, research or language learning purposes only