» » »

Crush 40 - I Am All Of Me Tabs

Artists:  A B C D E F G H I J K L M N O P Q R S T U V W X Y Z # 

I Am All Of Me Tabs

(ver. 1) Click to play this song!
Crush 40
 Rating:
2/5 (29 votes)

 I Am All Of Me  lessons Tabs too difficult? Try these video lessons and learn fast
 
                x2
e|---------------------------------------------------------------------------|
B|---------------------------------------------------------------------------|
G|----------------------------------10-10-10-10-10-10-10-11--11--11-11-10----|
D|-10-10-10-10-10--10-12--12--------10-10-10-10-10-10-10-11--11--11-11-10-13-|
A|-10-10-10-10-10--10-12--12--------8--8--8--8--8--8--8--9---9---9--9--8--13-|
E|-8--8--8--8--8---8--10--10----------------------------------------------11-|


e|---------------------------------------------------------------------------|
B|---------------------------------------------------------------------------|
G|---------------------------------------------------------------------------|
D|--------------8-8/10-------------------------------------------------------|
A|---------9/10----------9/10-9----------------------------------------------|
E|-8-8-8---------------8-----------------------------------------------------|

x2
e|---------------------------------------------------------------------------|
B|---------------------------------------------------------------------------|
G|---------------------------------------------------------------------------|
D|---------------------------8-8-8--13--13--13-13--13--13--13--11-11---------|
A|----10-10-9-9-10-10---10-10-------13--13--13-13--13--13--13--11-11---------|
E|-8-8---------------8-8------------11--11--11-11--11--11--11--9--9----------|


e|---------------------------------------------------------------------------|
B|---------------------------------------------------------------------------|
G|---------------------------------------------------------------------------|
D|---------------------------------------------------------------------------|
A|------10-----10----10------------------------------------------------------|
E|-8--8----8-8----8-8----8-8--8----------------------------------------------|
            
Submit corrections


        I Am All Of Me  lessons Hard to play? Try these video lessons and learn fast I Am All Of Me  lessons
        
↑ Back to top | Tablatures and chords for acoustic guitar and electric guitar, ukulele, drums are parodies/interpretations of the original songs. You may use it for private study, scholarship, research or language learning purposes only