» » »

Crowded House - Saturday Sun Tabs

Artists:  A B C D E F G H I J K L M N O P Q R S T U V W X Y Z # 

Saturday Sun Tabs

(ver. 1) Click to play this song!
Crowded House
 Rating:
4/5 (4 votes)

 Saturday Sun lessons Tabs too difficult? Try these video lessons and learn fast
 
                Crowded House
Saturday Sun (acoustic)



This arrangement is based on the acoustic arrangement shown on You Tube


I've simplified the tab to just show the chord that needs to be played and the
melody lines to be picked out,

You can work out the strumming easy enough. It plays well and sounds good.


VERSE

   G5          G5          Bm      G5         F#m
E--3------------3----------2-------3----------2-----|
B--3--3-2-0-----0--2-0-----3-------3----------2-----|
G--0------------0------2---4-------0--2-0-----2-----|
D--0---------2--0----------4-------0------2---4-----|
A--0------------0----------x-------0----------4-----|
E--3------------3----------x-------3----------2-----|


CHORUS

  Dsus2/C#    Fsus?  F   G5       Bb      D
E--0--slide---0------1----3--------1------2---------|
B--3--slide---6------1----0--------3------3---------|
G--2--slide---5------2----0--2-0---3------2---------|
D--4--slide---7------3----0--------3------0---------|
A--0----------0------x----0--------1------x---------|
E--x----------x------x----3--------x------x---------|


  D          F?      F   G5       Bb      D
E-2--slide---5-------1----3--------1------2---------|
B-3--slide---6-------1----0--------3------3---------|
G-2--slide---5-------2----0--2-0---3------2---------|
D-0----------0-------3----0--------3------0---------|
A-x----------x-------x----0--------1------x---------|
E-x----------x-------x----3--------x------x---------|


BRIDGE

  E      G      A
E-0------3------0---------------------------------------|
B-0------0------2---------------------------------------|
G-1------0------2---------------------------------------|
D-2------0------2---------------------------------------|
A-2------2------0---------------------------------------|
E-0------3------X---------------------------------------|


OUTRO

  G     Asus4   Bm                                     D
E-3------3------2--------------------------------------2-|
B-0------3------3--------------------------------------3-|
G-0------2------4------repeats--then-ends-on--D-chord--2-|
D-0------2------4--------------------------------------0-|
A-2------0------X--------------------------------------x-|
E-3------X------X--------------------------------------x-|

its a saturday sun
and the game is still on
and the waiting is done
its all about you

as it calls out your name
on a hill far away
hes looking down from above
its all about to change

hes insane, callin on the day
til the clouds get blown away
well inside his mind
lie all the space and time
hes been waitin for the signs

its a saturday sun
and the madness is done
and the night has been sung
of existence

and my head is alright
was the darkest of nights
and he had me unsung

callin on the day
til the clouds get blown away
well inside his mind
lie all the space and time
hes been waitin for the signs


lookin for a revalation maybe
or visions of the underworld
when you saw the first light, then you know its alright

its a saturday sun
and the game is still on
and the waiting is done

Solo (chorus chords)

and tiny waves
colours up the sky
make the darkness come to life
memories inside his heart
of everything he wants to know
of everyplace he has to go
            
Submit corrections


        Saturday Sun lessons Hard to play? Try these video lessons and learn fast Saturday Sun lessons
        
↑ Back to top | Tablatures and chords for acoustic guitar and electric guitar, ukulele, drums are parodies/interpretations of the original songs. You may use it for private study, scholarship, research or language learning purposes only