» » »

Crowded House - Locked Out Bass

Artists:  A B C D E F G H I J K L M N O P Q R S T U V W X Y Z # 

Locked Out Bass

(ver. 1) Click to play this song!
Crowded House
 Rating:
4.1/5 (22 votes)

 Locked Out lessons Tabs too difficult? Try these video lessons and learn fast
 
                Tuning:standard

INTRO/VERSE

G|------------------|--------------------||
D|------------------|-------------------*||
A|------------------|-7-7-7-7-7-7-7-7---*||
E|-5-5-5-5-5-5-5-5--|--------------------||

CHORUS

G|------------------|--------------------|-------------------|------------------|
D|------------------|-7-7-7-7-7-7-7-7----|-7-7-7-7-7-7-7-7---|------------------|
A|------------------|--------------------|-------------------|-7-7-7-7-7-7-7-7--|
E|-7-7-7-7-7-7-7-7--|--------------------|-------------------|------------------|

G|------------------|--------------------|-------------------|------------------|
D|------------------|-7-7-7-7-7-7-7-7----|-------------------|------------------|
A|------------------|--------------------|-4-4-4-4-4-4-4-4---|------------------|
E|-7-7-7-7-7-7-7-7--|--------------------|-------------------|-4-4-4-4-4--------|

2ND VERSE: SAME AS 1ST
2ND CHORUS: SAME AS 1ST

SOLO: SAME AS VERSE, BUT PLAY LAST E AN OCTAVE HIGHER

MID 8

G|------------------|--------------------|-------------------|------------------|
D|------------------|--------------------|-------------------|------------------|
A|-5-5-5-5-5-5-5-5--|-5-5-5-5-5-5-5-5----|-4-4-4-4-4-4-4-4---|-4-4-4-4-4-4-4-4--|
E|------------------|--------------------|-------------------|------------------|

G|------------------|--------------------|-------------------|------------------|
D|------------------|--------------------|-------------------|------------------|
A|-5-5-5-5-5-5-5-5--|-5-5-5-5-5-5-5-5----|-4-4-4-4-4-4-4-4---|------------------|
E|------------------|--------------------|-------------------|-4-4-4-4-4--------|

REPEAT VERSE
REPEAT CHORUS

G|------------------|--------------------|-------------------|------------------|
D|------------------|--------------------|-------------------|------------------|
A|-5-5-5-5-5-5-5-5--|-4-4-4-4-4-4-4-4----|-5-5-5-5-5-5-5-5---|-4-4-4-4-4-4-4-4--|
E|------------------|--------------------|-------------------|------------------|

REPEAT INTRO/VERSE TO FADE
            
Submit corrections


        Locked Out lessons Hard to play? Try these video lessons and learn fast Locked Out lessons
        
↑ Back to top | Tablatures and chords for acoustic guitar and electric guitar, ukulele, drums are parodies/interpretations of the original songs. You may use it for private study, scholarship, research or language learning purposes only