» » »

Crowded House - Dont Dream Its Over Tabs

Artists:  A B C D E F G H I J K L M N O P Q R S T U V W X Y Z # 

Dont Dream Its Over Tabs

(ver. 1) Click to play this song!
Crowded House
 Rating:
4.1/5 (31 vote)

 Dont Dream Its Over  lessons Tabs too difficult? Try these video lessons and learn fast
 
                 Intro
  Q=82
  Ebsus2              Bbm/Eb      Bm7/EEbsus2
 4/4
  Gtr I (Clean El. Gtr. w/ delay & chorus)
  E. S E E E. S E E   E. S E E Q  Q    E. S E E E. S E E
|----6--------6-----|----6-----------|----6--------6-----|
|-6--6--------6-----|----6--------9--|-6--6--------6-----|
|-8------8-8--8---8-|-6--6---6-8--6--|-8------8-8--8---8-|
|-8------8-8------8-|-8------8-8--8--|-8------8-8------8-|
|-6------6-6------6-|-6------6-6--6--|-6------6-6------6-|
|-------------------|----------------|-------------------|


                    1st - 3rd Verses
                 $
  Bbm/Eb      Bm7/Eb Ebsus2              Cm
  E. S E E Q  Q      E. S E E E. S E E   E. S E E E. S E E
|----6-----------||-----6--------6-----|----3--------3-----|
|----6--------9--||o-6--6--------6-----|----4--------4-----|
|-6--6---6-8--6--||--8------8-8--8---8-|-5--5---5-5--5---5-|
|-8------8-8--8--||--8------8-8------8-|-5------5-5------5-|
|-6------6-6--6--||o-6------6-6------6-|-3------3-3------3-|
|----------------||--------------------|-------------------|
|
| Gtr II (Clean El. Gtr.)
| W                  W                   W
|----------------||--6-----------------|-------------------|
|----------------||o-6-----------------|-------------------|
|----------------||--8-----------------|-------------------|
|----------------||--------------------|-------------------|
|----------------||o-------------------|-------------------|
|----------------||--------------------|-------------------|


  Ab                  G               Gsus4    Ebsus2
  E. S E E E. S E E    E  S S E E S S E E  E    E. S E E E. S E E
|----4--------4-----|-----3-3----------------|-----6--------6-----|
|----4--------4-----|-----3-3----------------|--6--6--------6-----|
|----5--------5---5-|-----4-4---------5-5--x-|--8------8-8--8---8-|
|-6------6-6------6-|--5--------5-x-x-5-5--x-|--8------8-8------8-|
|-6------6-6------6-|--5--------5-x-x-5-5--x-|--6------6-6------6-|
|-4------4-4------4-|--3--------3-x-x-3-3--x-|--------------------|
|
|                      ~~~
| W                    H          Q     E  E   +W
|-------------------|---------------------!6-|-(6)----------------|
|-------------------|---------------------!6-|-(6)----------------|
|-------------------|-[5]-----------------!8-|-(8)----------------|
|-------------------|---------------------!8-|-(8)----------------|
|-------------------|------------------------|--------------------|
|-------------------|------------------------|--------------------|


             To Coda
  Cm                   Ab                  G
  E. S E E E. S E E    E. S E E E. S E E   E. S E E E S S E E
|----3--------3------|----4--------4-----|----3-------3-3-3---||
|----4--------4------|----4--------4-----|----3-------3-3-3---||
|-5--5---5-5--5---5--|----5--------5---5-|----4-------4-4-4---||
|-5------5-5------5--|-6------6-6------6-|-5------5-5-------5-||
|-3------3-3------3--|-6------6-6------6-|-5------5-5-------5-||
|--------------------|-4------4-4------4-|-3------3-3-------3-||


 Chorus
  Ab        Bb          Eb        Cm
  E S S E E E S S E E   E S S E E E S S E E
|---4-4-------6-6-----|---6-6-------3-3-----|
|---4-4-------6-6-----|---8-8-------4-4-----|
|---5-5-------7-7-----|---8-8-----5-5-5-----|
|-6-------6-8-------8-|-8-------8-5-------5-|
|-6-------6-8-------8-|-6-------6-3-------3-|
|-4-------4-6-------6-|---------------------|


  Ab        Bb          Eb        Cm
  E S S E E E S S E E   E S S E E E S S E E
|---4-4-------6-6-----|---6-6-------3-3-----|
|---4-4-------6-6-----|---8-8-------4-4-----|
|---5-5-------7-7-----|---8-8-----5-5-5-----|
|-6-------6-8-------8-|-8-------8-5-------5-|
|-6-------6-8-------8-|-6-------6-3-------3-|
|-4-------4-6-------6-|---------------------|


  Ab       Bb         Eb        Cm
  E. S E E E. S E E   E S S E E E. S +S  S E
|----4--------------|---6-6-6----------------|
|----4--------------|---6-6-8------4-(4)-----|
|----5-----7--7---7-|-8-8-8-8-8-5--5-(5)-x-5-|
|-6------6-8--8---8-|-8-------8-5--5-(5)-x-5-|
|-6------6-8--8---8-|-6-------6-3--------x-3-|
|-4------4-6--6---6-|------------------------|
|
| Gtr II
| W                   W
|-------------------|------------------------|
|-------------------|------------------------|
|-------------------|------------------------|
|-------------------|------------------------|
|-------------------|------------------------|
|-------------------|------------------------|


                      1.
  Ab                                Bb
  E. S E E E S S E E   E. S E E S S E E  E
|----4-------4-4-4---|----4------------------||
|----4-------4-4-4---|----4-----------------o||
|----5-------5-5-5---|----5---------7-7--7---||
|-6------6-6-------6-|-6------6-6-x-8-8--8---||
|-6------6-6-------6-|-6------6-6-x-8-8--8--o||
|-4------4-4-------4-|-4------4-4-x-6-6--6---||
|
| W                    H        Q     E  E
|--------------------|------------------!6---||
|--------------------|------------------!6--o||
|--------------------|------------------!8---||
|--------------------|------------------!8---||
|--------------------|----------------------o||
|--------------------|-----------------------||


              Keyboard Solo
  2.
  Ab           Ebsus2              Cm                     Ab
 2/4          4/4
  E S S E E    E. S E E E. S E E   E S S +Q   +E. S E E   E. S Q  +E. S E E
|---4-4-----||----6--------6-----|---3-3-(3)--(3)-3-3---|----4-4--(4)-4-4----|
|---4-4-----||-6--6--------6-----|---4-4-(4)--(4)-4-4---|----4-4--(4)-4-4----|
|---5-5-----||-8--8---8-8--8---8-|-5-5-5-(5)--(5)-5-5-5-|----5-5--(5)-5-5----|
|-6-------6-||-8------8-8------8-|-5------------------5-|-6---------------6--|
|-6-------6-||-6------6-6------6-|-3--------------------|-6---------------6--|
|-4-------4-||-------------------|----------------------|-4---------------4--|


  G                   Ebsus2                 Cm
  E. S Q  +E. S E E   E S S Q  +E  S S E E   E S S Q  +E  S S E E
|----3-3--(3)-3-----|---6-6-6--(6)-6-6-6---|---3-3-3--(3)-3-3-3----|
|----3-3--(3)-3-----|---6-6-6--(6)-6-6-6---|---4-4-4--(4)-4-4-4----|
|----4-4--(4)-4-----|-8-8-8-8--(8)-8-8-8---|-5-5-5-5--(5)-5-5-5----|
|-5-------------5-5-|-8--------------------|-5---------------------|
|-5-------------5-5-|-6--------------------|-3---------------------|
|-3-------------3-3-|----------------------|-----------------------|


                                           Guitar Solo
  Ab                   G                    Ab                    Eb
                                         Gtr III (El. Gtr. w/ light dist.)
  E S S Q  +E. S E E   E. S E E E. S E E     S  S  S  S  +S  E  S  E E E E
|---4-4-4--(4)-4-4---|----3-3------3-3---||---------------------------------|
|---4-4-4--(4)-4-4---|----3-3------3-3---||----------11-(11)-9---------8-8--|
|---5-5-5--(5)-5-5---|----4-4------4-4---||--------8-10-(10)-8--8----8-8-8--|
|-6------------------|-5------5-5------5-||--8S10-10-----------10--8-8------|
|-6------------------|-5------5-5------5-||-10S11-----------------10--------|
|-4------------------|-3------3-3------3-||---------------------------------|


  Ab                    Eb
   S  S  S  S  +S  E  S E  S  S  S S  S  S
|------------------------------------------|
|----------11-(11)-9-----------------------|
|--------8-10-(10)-8--8---10s12-10s8-------|
|--8S10-10-----------10-8------------10----|
|-10S11---------------------------------10-|
|------------------------------------------|


  Ab                    Eb         Db
   S  S  S  S  +S  E  S  E E E E   E  S S +S   E S S  S E +E  S S
|--------------------------------|---------------------------------|
|----------11-(11)-9---------8-8-|----------------------9-(9)------|
|--------8-10-(10)-8--8----8-8-8-|---------------8-8s10------------|
|--8S10-10-----------10--8-8-----|------9-(9)-----------------8-9--|
|-10S11-----------------10-------|---11-------11-------------------|
|--------------------------------|-9-------------------------------|


               D.S. al Coda &
                               Ab
  Gtr I
  W                            E. S E E E. S E E
|---------------------------||----4--------4-----|
|---------------------------||----4--------4-----|
|---------------------------||----5--------5---5-|
|---------------------------||-6------6-6------6-|
|---------------------------||-6------6-6------6-|
|---------------------------||-4------4-4------4-|
|
| Gtr III
| E S  S E S  S E  E  E  E     W
|---------------9-----------||-------------------|
|--------9-9s11---11s13-11--||-------------------|
|---8h10--------------------||-------------------|
|-8-------------------------||-------------------|
|---------------------------||-------------------|
|---------------------------||-------------------|


  G
  E. S E     E   E   S S  E E
|----3---------------3-3--3---||
|----3---------------3-3--3---||
|----4---------------4-4--4---||
|-5----------5---5----------5-||
|-5----------5---5----------5-||
|-3----------3---3----------3-||
|
| Q    S  S  E  +E   E    Q
|-----------16-(16)------15---||
|--------16---------15--------||
|-----------------------------||
|-----------------------------||
|-----------------------------||
|-----------------------------||


 Chorus
  Ab        Bb          Eb        Cm
  Gtr I
  E S S E E E S S E E   E S S E E E S S E E
|---4-4-------6-6-----|---6-6-------3-3-----|
|---4-4-------6-6-----|---6-6-------4-4-----|
|---5-5-------7-7-----|---8-8-----5-5-5-----|
|-6-------6-8-------8-|-8-------8-5-------5-|
|-6-------6-8-------8-|-6-------6-3-------3-|
|-4-------4-6-------6-|---------------------|


  Ab        Bb          Eb        Cm
  E S S E E E S S E E   E S S E E E S S E E
|---4-4-------6-6-----|---6-6-------3-3-----|
|---4-4-------6-6-----|---6-6-------4-4-----|
|---5-5-------7-7-----|---8-8-----5-5-5-----|
|-6-------6-8-------8-|-8-------8-5-------5-|
|-6-------6-8-------8-|-6-------6-3-------3-|
|-4-------4-6-------6-|---------------------|


  Ab       Bb         Eb        Cm             Ab
                                                                   2/4
  E. S E E E. S E E   E S S E E E. S +S  S E   E. S E E E S S E E   E S S E E
|----4--------------|---6-6-6----------------|----4-------4-4-4---|---4-4-----|
|----4--------------|---6-6-8------4-(4)-----|----4-------4-4-4---|---4-4-----|
|----5-----7--7---7-|-8-8-8-8-8-5--5-(5)-x-5-|----5-------5-5-5---|---5-5-----|
|-6------6-8--8---8-|-8-------8-5--5-(5)-x-5-|-6------6-6-------6-|-6-------6-|
|-6------6-8--8---8-|-6-------6-3--------x-3-|-6------6-6-------6-|-6-------6-|
|-4------4-6--6---6-|------------------------|-4------4-4-------4-|-4-------4-|


            Bb          Eb        Cm
 4/4
  E S S E E E S S E E   E S S E E E S S E E
|---4-4-------6-6-----|---6-6-------3-3-----|
|---4-4-------6-6-----|---6-6-------4-4-----|
|---5-5-------7-7-----|---8-8-----5-5-5-----|
|-6-------6-8-------8-|-8-------8-5-------5-|
|-6-------6-8-------8-|-6-------6-3-------3-|
|-4-------4-6-------6-|---------------------|


   Outro
    Ab        Bb          Eb        Cm
    E S S E E E S S E E   E S S E E E S S E E   5x
||----4-4-------6-6-----|---6-6-------3-3-------||
||o---4-4-------6-6-----|---6-6-------4-4------o||
||----5-5-------7-7-----|---8-8-----5-5-5-------||
||--6-------6-8-------8-|-8-------8-5-------5---||
||o-6-------6-8-------8-|-6-------6-3-------3--o||
||--4-------4-6-------6-|-----------------------||            
Submit corrections


        Dont Dream Its Over  lessons Hard to play? Try these video lessons and learn fast Dont Dream Its Over  lessons
        
↑ Back to top | Tablatures and chords for acoustic guitar and electric guitar, ukulele, drums are parodies/interpretations of the original songs. You may use it for private study, scholarship, research or language learning purposes only