» » »

Creedence Clearwater Revival - Hello Mary Lou Bass

Artists:  A B C D E F G H I J K L M N O P Q R S T U V W X Y Z # 

Hello Mary Lou Bass

(ver. 1) Click to play this song!
Creedence Clearwater Revival
 Rating:
4.3/5 (26 votes)

 Hello Mary Lou lessons Tabs too difficult? Try these video lessons and learn fast
 
                [Riff 1]
G|---------------------------------------------------------------------------------|
D|--7--7--67--7--67--7--6----457--7--6----457--7----6-4----4-----------7=Pick Up---|
A|---7--7---7--7---7--7--5-5----7--7--7-7----7--7-54---452---23--5---74------------|
E|------------------------5------------7-----------------------5---5---------------|

[Riff 2]
G|--------------------------------------------------------------------------------|
D|------7---6--47--47--7---7---6----457--7---6-----457--------------7=Pick up-----|
A|----7---7---5---5------7---7--7-7----7---7---5------7-7-----5---74--------------|
E|-------------------------------7---------------5--------7-5---5-----------------|

[Riff 1]
G|---------------------------------------------------------------------------------|
D|--7--7--67--7--67--7--6----457--7--6----457--7----6-4----4-----------7=Pick Up---|
A|---7--7---7--7---7--7--5-5----7--7--7-7----7--7-54---452---23--5---74------------|
E|------------------------5------------7-----------------------5---5---------------|

[Solo]
G|--------------------------------------------------------------------------------|
D|-----------47--47----------69--69-------------4-------------------7=Pick up-----|
A|---47--47-5---5----47--47-7---7----47--47-4-----4-2---7-----5---74--------------|
E|--5---5-----------5---5-----------5---5-----4-------2---7-5---5-----------------|

[Riff 3]
G|--------------------------------------------------------------------------------|
D|-----7--6-----457--7--6----457--7--6----457-------------7=Pick Up---------------|
A|---7--7---5-5----7--7--7-7----7--7--5-5----7-7----5---74------------------------|
E|-----------5------------7------------5--------7-5---5---------------------------|

[Outro]
G|-------------------------------------------------------------------------------------|
D|----7--6----457--7--6----457--7----6-4----4------------------------------------------|
A|--7--7--5-5----7--7--7-7----7--7-54---452--23--5---74-22-77---5---74-22-77---5-------|
E|---------5------------7----------------------5---5----------5---5----------5---505---|            
Submit corrections


        Hello Mary Lou lessons Hard to play? Try these video lessons and learn fast Hello Mary Lou lessons
        
↑ Back to top | Tablatures and chords for acoustic guitar and electric guitar, ukulele, drums are parodies/interpretations of the original songs. You may use it for private study, scholarship, research or language learning purposes only