» » »

Cranberries - Zombie - Heavy Tabs

Artists:  A B C D E F G H I J K L M N O P Q R S T U V W X Y Z # 

Zombie - Heavy Tabs

(ver. 1) Click to play this song!
Cranberries
 Rating:
3.4/5 (5 votes)

 Zombie - Heavy lessons Tabs too difficult? Try these video lessons and learn fast
 
                (Sion)
tuning - drop D, lowered one whole step

INTRO: remains the same as original song

The Rhythm is kinda tricky, listen to song to get it

light gain, chorus pedal: level 10, depth 10, speed 3

-|-0-----0-----3-----2
-|-0-----0-----0-----3
-|-0-----0-----0-----2
-|-2-----2-----0-----0
-|-2-----3-----2-----0
-|-0-----------5-----2


CHORUS:

-----------------|------------------|-----------------|-----------------|
-----------------|------------------|-----------------|-----------------|
-----------------|------------------|-----------------|-----------------|
-0-0-0-0-0-0-3-0-|-8-8-8-8-8-8-10-8-|-3-3-3-3-3-3-5-3-|-2-2-2-2-2-2-3-2-|
-0-0-0-0-0-0-3-0-|-8-8-8-8-8-8-10-8-|-3-3-3-3-3-3-5-3-|-2-2-2-2-2-2-3-2-|
-0-0-0-0-0-0-3-0-|-8-8-8-8-8-8-10-8-|-3-3-3-3-3-3-5-3-|-2-2-2-2-2-2-3-2-|

2nd time through on last note hit (000xxx) instead of (222xxx)


VERSE:

The verse starts with a mini-solo, let last note ring then

-|--7-8--5-7--3-5--2-3-2-0-0-0-|
-|--0-0--0-0--0-0--0-0-0-3-3-0-|
-|--0-0--0-0--0-0--0-0-0-0-0-0-|
-|-----------------------------|
-|-----------------------------|
-|-----------------------------|

pick slide down, & even though you play it kinda fast, just follow along with the bass line

-----------------------------|--------------------------|
-----------------------------|--------------------------|
-----------------------------|--------------------------|
-|-0-0-0-0-0-0-0-0-3-0-0-0-|-8-8-8-8-8-8-8-8-10-8-8-8-|
-|-0-0-0-0-0-0-0-0-3-0-0-0-|-8-8-8-8-8-8-8-8-10-8-8-8-|
-|-0-0-0-0-0-0-0-0-3-0-0-0-|-8-8-8-8-8-8-8-8-10-8-8-8-|
   * *   * *   * *   * *     * *   * *   * *    * * 

-|-------------------------|-------------------------|
-|-------------------------|-------------------------|
-|-------------------------|-------------------------|
-|-3-3-3-3-3-3-3-3-5-3-3-3-|-2-2-2-2-2-2-2-2-3-2-2-2-|
-|-3-3-3-3-3-3-3-3-5-3-3-3-|-2-2-2-2-2-2-2-2-3-2-2-2-|
-|-3-3-3-3-3-3-3-3-5-3-3-3-|-2-2-2-2-2-2-2-2-3-2-2-2-|
   * *   * *   * *   * *     * *   * *   * *   * *

SOLO: same as intro, light gain, chorus pedal


-|--7-8--5-7--7-7-7-7-7-8--5-7--7-7-7-7-7-8--5-7--7-7-7-7-8--5-7--|
-|--0-0--0-0--0-0-0-0-0-0--0-0--0-0-0-0-0-0--0-0--0-0-0-0-0--0-0--|
-|--0-0--0-0--0--00-0-0-0--0-0--0-0-0-0-0-0--0-0--0-0-0-0-0--0-0--|
-|----------------------------------------------------------------|
-|----------------------------------------------------------------|
-|----------------------------------------------------------------|

          |-Chorus from here
-|--2-2-2-2-3--0-2--2-2-2-2-3--0-2--2-2-2-2-3--0-2--2-0--0-2--|
-|--0-0-0-0-0--0-0--0-0-0-0-0--0-0--0-0-0-0-0--0-0--0-0--0-0--|
-|--0-0-0-0-0--0-0--0-0-0-0-0--0-0--0-0-0-0-0--0-0--0-0--0-0--|
-|------------------------------------------------------------|
-|------------------------------------------------------------|
-|------------------------------------------------------------|

-|-5--5--5-7--7-5-5-5-7--7-5-5-3-2-2--2-0-0--|
-|-0--0--0-0--0-0-0-0-0--0-0-0-0-0-0--0-0-0--|
-|-0--0--0-0--0-0-0-0-0--0-0-0-0-0-0--0-0-0--|
-|-------------------------------------------|
-|-------------------------------------------|
-|-------------------------------------------|

-|-2-2-2-3--0-2--2-2-2-3--0-2--2-2-2-3--0-2--2-0--0--|
-|-0-0-0-0--0-0--0-0-0-0--0-0--0-0-0-0--0-0--0-0--0--|
-|-0-0-0-0--0-0--0-0-0-0--0-0--0-0-0-0--0-0--0-0--0--|
-|---------------------------------------------------|
-|---------------------------------------------------|
-|---------------------------------------------------|

Ending Bass Solo
-|-----------------------------------------------------------------
-|-----------------------------------------------------------------
-|-----------------3-3-3-335-3-0-------------------3-3-3-335-3-0---
-|-0-0-0-000-0-3-0---------------3-0-0-0-000-0-3-0---------------3-

-|-----------------------------------------------------------------
-|-----------------------------------------------------------------
-|-----------------3-3-3-335-3-0-----------------------------------
-|-0-0-0-000-0-3-0---------------3-0-------------------------------


ORDER:

Intro  : (1x)
Chorus : (3x)
Verse  : (mini solo x1, heavy part 4x)
Chorus : (4x)
Verse  : (mini solo x1, heavy part 4x)
Chorus : (4x)
Solo   : (1x)
end bass solo : (1x)
            
Submit corrections


        Zombie - Heavy lessons Hard to play? Try these video lessons and learn fast Zombie - Heavy lessons
        
↑ Back to top | Tablatures and chords for acoustic guitar and electric guitar, ukulele, drums are parodies/interpretations of the original songs. You may use it for private study, scholarship, research or language learning purposes only