» » »

Cranberries - Zombie By Jk Tabs

Artists:  A B C D E F G H I J K L M N O P Q R S T U V W X Y Z # 

Zombie By Jk Tabs

(ver. 1) Click to play this song!
Cranberries
 Rating:
4/5 (4 votes)

 Zombie By Jk lessons Tabs too difficult? Try these video lessons and learn fast
 
                SONG ORDER:

1. Intro  (1x)
2. Chorus (2x)
3. Verse  (1x)
4. Chorus (3x)
5. Verse  (1x)
6. Chorus (4x)
7. Solo   (1x)


INTRO: (1x)
*Clean Sound*

    a     C     G     D
e-|-0-----0-----1-----2----
B-|-1-----1-----0-----3----
G-|-2-----0-----0-----2----
D-|-2-----2-----0-----0-------REPEAT
A-|-0-----3-----2-----x----
E-|-x-----x-----3-----x----

CHORUS: (2x)
*Hard Sound / Gain=max*

e-|xxxxxxxxxxxxxxxxxxxxxxxxxxxxxxxxxxxxxxxxxxxxxxxxxxxxxxxxxxxxxxxxx
B-|xxxxxxxxxxxxxxxxxxxxxxxxxxxxxxxxxxxxxxxxxxxxxxxxxxxxxxxxxxxxxxxx
G-| xxxxxxxxxxxxxxxxxxxxxxxxxxxxxxxxxxxxxxxxxxxxxxxxxxxxxxxxxxxxxxx
D-|--2-2-2-2-2-2-2-2-2-2-2-2-2-2-2-2-2-2-2-2-2-2-2-2------------------|
A-|--0-0-0-0-0-0-0-0-2-2-2-2-2-2-2-2-3-3-3-3-3-3-3-3--2-2-2-2-2-2-2-2-|
E-|---------------------------------------------------3-3-3-3-3-3-3-3-| REPEAT and HOLD OUT AT THE END...

SOLO: (1x)
*Clean Sound*

e-|--7h8--5h7--3h5--2h3--2-3-2--------|
B-|----------------------------------------------|
G-|----------------------------------------------|
D-|----------------------------------------------|
A-|----------------------------------------------|
E-|----------------------------------------------|
The verse starts with a mini-solo and then play: a, C, g, d (look at the INTRO).

CHORUS: (3x)
*Hard Sound / Gain=max*

VERSE:

e-|xxxxxxxxxxxxxxxxxxxxxxxxxxxxxxxxxxxxxxxxxxxxxxxxxxxxxxxxxxxxxxxxx
B-|xxxxxxxxxxxxxxxxxxxxxxxxxxxxxxxxxxxxxxxxxxxxxxxxxxxxxxxxxxxxxxxx
G-| xxxxxxxxxxxxxxxxxxxxxxxxxxxxxxxxxxxxxxxxxxxxxxxxxxxxxxxxxxxxxxx
D-|--2-2-2-2-2-2-2-2-2-2-2-2-2-2-2-2-2-2-2-2-2-2-2-2------------------|
A-|--0-0-0-0-0-0-0-0-2-2-2-2-2-2-2-2-3-3-3-3-3-3-3-3--2-2-2-2-2-2-2-2-|
E-|---------------------------------------------------3-3-3-3-3-3-3-3-| REPEAT and HOLD OUT AT THE END...


*Clean Sound*


e-|--7h8--5h7--3h5--2h3--2-3-2--------|
B-|----------------------------------------------|
G-|----------------------------------------------|
D-|----------------------------------------------|
A-|----------------------------------------------|
E-|----------------------------------------------|
The verse starts with a mini-solo and then play: a, C, g, d (look at the INTRO).


during the singing part:
    a     C     G     D
e-|-0-----0-----1-----2----
B-|-1-----1-----0-----3----
G-|-2-----0-----0-----2----
D-|-2-----2-----0-----0-------REPEAT
A-|-0-----3-----2-----x----
E-|-x-----x-----3-----x----


Chorus: (4x)
*Hard Sound / Gain=max*

e-|xxxxxxxxxxxxxxxxxxxxxxxxxxxxxxxxxxxxxxxxxxxxxxxxxxxxxxxxxxxxxxxxx
B-|xxxxxxxxxxxxxxxxxxxxxxxxxxxxxxxxxxxxxxxxxxxxxxxxxxxxxxxxxxxxxxxx
G-| xxxxxxxxxxxxxxxxxxxxxxxxxxxxxxxxxxxxxxxxxxxxxxxxxxxxxxxxxxxxxxx
D-|--2-2-2-2-2-2-2-2-2-2-2-2-2-2-2-2-2-2-2-2-2-2-2-2------------------|
A-|--0-0-0-0-0-0-0-0-2-2-2-2-2-2-2-2-3-3-3-3-3-3-3-3--2-2-2-2-2-2-2-2-|
E-|---------------------------------------------------3-3-3-3-3-3-3-3-| REPEAT and HOLD OUT AT THE END...


SOLO at the END: (1x)
*Hard Sound / Gain=max*

e-|--7h8--5-7--7-7-7-7h8--5-7--7-7-7-7h8--5-7--7-7-7-7h8--5-7--|
B-|------------------------------------------------------------|
G-|------------------------------------------------------------|
D-|------------------------------------------------------------|
A-|------------------------------------------------------------|
E-|------------------------------------------------------------|

           -Start playing CHORUS-

e-|--2-2-2-2h3--0-2--2-2-2-2h3--0-2--2-2-2-2h3--0-2--2-0--0-2--|
B-|------------------------------------------------------------|
G-|------------------------------------------------------------|
D-|------------------------------------------------------------|
A-|------------------------------------------------------------|
E-|------------------------------------------------------------|

e-|--5--5--5-7--7-5-5-5-7--7-5-5-3-2-2--2-0-0--|
B-|--------------------------------------------|
G-|--------------------------------------------|
D-|--------------------------------------------|
A-|--------------------------------------------|
E-|--------------------------------------------|

e-|--2-2-2-3--0-2--2-2-2-3--0-2--2-2-2-3--0-2--2-0--0--|
B-|----------------------------------------------------|
G-|----------------------------------------------------|
D-|----------------------------------------------------|
A-|----------------------------------------------------|
E-|----------------------------------------------------|


*Bass line during chorus*

e-----------------------------------------------------------------|
B-----------------------------------------------------------------|
G-----------------------------------------------------------------|
D-----------------------------------------------------------------|
A-----------------3-3-3-3-3-3-5-3---------------------------------|
E-0-0-0-0-0-0-3-0-----------------3-3-3-3-3-3-5-3-2-2-2-2-2-2-3-2-|


Thanx for using my tabs!! but keep  on Punkrock ***
            
Submit corrections


        Zombie By Jk lessons Hard to play? Try these video lessons and learn fast Zombie By Jk lessons
        
↑ Back to top | Tablatures and chords for acoustic guitar and electric guitar, ukulele, drums are parodies/interpretations of the original songs. You may use it for private study, scholarship, research or language learning purposes only