Home » C » Cranberries »

Cranberries - This Is The Day Tabs

Artists:  A B C D E F G H I J K L M N O P Q R S T U V W X Y Z # 

This Is The Day Tabs

(ver. 1) Click to play this song!
Cranberries

the song is the second rock song on this album, it's good. Enjoy it.
I'm sure the song is accurately right. 100%.
Tuning: standard

Guitar 1: with hard distortion.
intro and verse through whole song.
e-0-0--0-0-0--0-0-0--0-0-0-0-0-0-0-------------------||
b-0-0--0-0-0--0-0-0--0-0-0-0-0-0-0-----------------||
g-0-0--0-0-0--0-0-0--0-2-2-0-0-0-0-------------------||
d-2-2--2-2-2--2-2-2--2-2-2-0-0-2-2-------------------||
a-------------------------------------||
e-------------------------------------||


Guitar 2: with distortion.

e------0------3-2------------------------||
b------0------0-0------------------------||
g------0-------------------------------||
d-2*-2*---x3--------------------------------||
a-2*-2*-----------------------------------||
e-------------------------------------||
  *=Palm Mute

G1 whole, G2 one for chord with vibrato.
Chorus:
   Em ~  C ~   Asus2~   G6~
e--0-----0------0--------0----------------||
b--0-----1------0--------0----------------||
g--0-----0------2--------0----------------||
d--2-----2------2--------0----------------||
a--2-----3------0--------2----------------||
e--0-----x------x--------3----------------||


Guitar 2: Bridge.
e-------------------------------------------------------------------||
b--10h12-12-12-12-10-10-10-10-8-8-8-8-7-7-8-10-10/12 start again.---||
g-------------------------------------------------------------------||
d-------------------------------------------------------------------||
a-------------------------------------------------------------------||
e-------------------------------------------------------------------||


Guitar 2: End with high distortion and feedback.
e------14-----------------------------||
b-2/12~--12~-12p10~h12/13*------------||
g-------------------------------------||
d-------------------------------------||
a-------------------------------------||
e-------------------------------------||

listen to the song and follow the rhythm.
Please vote for the song. (Rating 5)
this tab is only for study and particular use.
            
Submit corrections

↑ Back to top | Tablatures and chords for acoustic guitar and electric guitar, ukulele, drums are parodies/interpretations of the original songs. You may use it for private study, scholarship, research or language learning purposes only