» » »

Cranberries - Sunday Tabs

Artists:  A B C D E F G H I J K L M N O P Q R S T U V W X Y Z # 

Sunday Tabs

(ver. 1) Click to play this song!
Cranberries
 Rating:
4/5 (4 votes)

 Sunday lessons Tabs too difficult? Try these video lessons and learn fast
 
                Cranberries - Sunday:
This song is too wonderful, but there is too much violin.. I can't play it with my group:((((

Intro:

  B                          A                          G
E-2--------------------------0--------------------------3-------------------------
B-4-4----4-----4-----4----4--2-2----2-----2-----2----2--3-3----3-----3-----3----3-
G-4---4----4-----4------4----2---2----2-----2------2----0---0----0-----0------0---
D-4----------4-----4---------2----------2-----2---------0----------0-----0-------- then again A and G with the same pattern;
A-2--------------------------0--------------------------2-------------------------
E-2-----------------------------------------------------3-------------------------

  F                               C
E-----------------------------------------------------------------
B---1---1---1---1---1---1---1---1---1---1---1---1---1---1---1---1-
G-----2---2---2---2---2---2---2-------0---0---0---0---0---0---0---
D-3-------------------------------2-------------------------------
A-----------------------------------------------------------------
E-----------------------------------------------------------------


Verse1:
Keep strumming F and C like in the intro 4 times; then only strum F once

2nd guitar plays these riffs:

D-3--2-3--2-3-2---  and -2-3-2-3--2-3--2-3-2---
A---------------3-      ---------------------3-


Verse2;3:
F c (x4)

2nd guitar strums F once at the start of verse 2


Bridge:
F E
Am E (x3)
Am

2nd guitar plays this riff over the E:

D-3--2-------------
A-------5--3--2--3-


Verse4,5,6:
F C (x4)


Outro:
F E
Am E(x4)

2nd guitar plays this riff over the first 4E's:

D-3--2-------------
A-------5--3--2--3-



Here are the lyrics with the parts of the song:
INTRO

VERSE1
Oh, do you know,
                          Riff#1
Where to go, where to go? 
Something on your mind,
Riff#2                                       Riff#1
Wanna leave me behind, wanna leave me behind. 

VERSE2
You're spinning me around, 
My feet are off the ground. 
I dunno where I stand. 
Do you have to hold my hand? 
You mystify me, you mystify me, you mystify me... 

VERSE3
Oh, when he walked into the room, 
It happened oh so soon. 
I didn't want to know. 
Does he really have to go? 
You mystify me, you mystify me, you mystify me... 

BRIDGE

VERSE4
And I couldn't find the words, 
To say, "I love you." 
And he couldn't find the time, 
To say, "I need you." 
It wouldn't come out right. 
It wouldn't come out right. 
Just came out all wrong. 

VERSE5
You're spinning me around, 
My feet are off the ground. 
I dunno where I stand. 
Do you have to hold my hand? 
You mystify me, you mystify me, you mystify me... 

VERSE6
Oh, do you know, 
Where to go, where to go? 
Something on your mind, 
Wanna leave me behind, wanna leave me behind.

OUTRO
            
Submit corrections


        Sunday lessons Hard to play? Try these video lessons and learn fast Sunday lessons
        
↑ Back to top | Tablatures and chords for acoustic guitar and electric guitar, ukulele, drums are parodies/interpretations of the original songs. You may use it for private study, scholarship, research or language learning purposes only