Home » C » Cranberries »

Cranberries - Ridiculous Thoughts Bass

Artists:  A B C D E F G H I J K L M N O P Q R S T U V W X Y Z # 

Ridiculous Thoughts Bass

(ver. 1) Click to play this song!
Cranberries
Aghain, this is a five string bass tab on high C tuning (E,A,D,G,C) so it may seem 
and trickier than it actually is. However, it isn't so please feel free to make it as 
as you would if you were doing it yourself.

(intro)
C-----------------------------------------------|
G-----------------------------------------------|
D-2-2-0-0--0-2-2-0-0--0-2-2-0-0--0-2-2-0-0--0-2-|
A--------3----------3----------3----------3-----|
E-----------------------------------------------|

(main vocal entry)
C-------------------------------------------------------------------|
G-------------------------------------------------------------------|
D-2-2-5-5-0-0-0-0-4-5-7-2-2-5-5-0-0-0-0-4-5-7-2-2-5-5-0-0-0-0-4-5-7-|
A-------------------------------------------------------------------|
E-------------------------------------------------------------------|

C--------------------------------------------------------------------|
G-------------(v chorus begins)--------------------------------------|
D-2-2-5-5-0-0-0--2-2-5-5-0-0-0-0-4-5-7-2-2-5-5-0-0-0-0-4-5-7-2-2-0-0-|
A--------------------------------------------------------------------|
E--------------------------------------------------------------------|

(Chorus part two)
C--------------------------------------------------------------------|
G--------------------------------------------------------------------|
D-0-0-4-5-7-2-2-5-5-0-0-0------------------------2-2-2-2-2-2-0-0-0-0-|
A-------------------------3-3-3-3-3-3-0-0-0-0-0-0--------------------|
E--------------------------------------------------------------------|

C---------------------------------------------------------------------|
G---------------------------------------------------------------------|
D-0-0-----------------------2-2-2-2-2-2-0-0-0-0-0-0-------------------|
A----3-3-3-3-3-3-0-0-0-0-0-0------------------------3-3-3-3-3-3-0-0-0-|
E---------------------------------------------------------------------|

C--------------------------------------------------------------------|
G--------------------------------------------------------------------|
D------2-2-2-2-2-2-0-0-0-0-0-0-------------------------2-2-2-2-2-2-0-|
A-0-0-0-----------------------3-3-3-3-3-3-0-0-0-0-0-0-0--------------|
E--------------------------------------------------------------------|

C-----------|
G-----------|
D-0-0-0-0-0-|
A-----------|
E-----------|

(repeat main part and chorus parts one and two again before starting this part 
after part two,. this is part three, which is also the outro)

C-------------------------------------------------------------------|
G-------------------------------------------------------------------|
D------------------------2-2-2-2-2-2-2-2-2-2-2-2--------------------|
A-3-3-3-3-3-3-0-0-0-0-0-0-----------------------3-3-3-3-3-3-0-0-0-0-|
E-------------------------------------------------------------------|

C----------------------------|
G----------------------------|
D----2-2-2-2-2-2-2-2-2-2-2-2-|
A-0-0------------------------|
E----------------------------|

Repeat four more times and from there, you can end anyway you like. And there you have 
the whole song.
            
Submit corrections

↑ Back to top | Tablatures and chords for acoustic guitar and electric guitar, ukulele, drums are parodies/interpretations of the original songs. You may use it for private study, scholarship, research or language learning purposes only