» » »

Cranberries - Loud And Clear Tabs

Artists:  A B C D E F G H I J K L M N O P Q R S T U V W X Y Z # 

Loud And Clear Tabs

(ver. 1) Click to play this song!
Cranberries
 Rating:
4/5 (4 votes)

 Loud And Clear lessons Tabs too difficult? Try these video lessons and learn fast
 
                The Cranberries: Loud And Clear
this is a simple song

Intro:Noel plays G#5-distorsion
E----------------------------------------------------------------
B----------------------------------------------------------------
G----------------------------------------------------------------
D---6-6---6-6---6-6---6-6---6---6------------------------------------------
A---6-6---6-6---6-6---6-6---6---6------------------------------------------
E---4-4---4-4---4-4---4-4---4---4------------------------------------------
violin or trumpet arrranged to guitar:
E----11----11-----11----11------11------------------------------------
B--11----11-----11----11----11------------------------------------------
G----------------------------------------------------------------
D-----------------------------------------------------------------
A----------------------------------------------------------------
E----------------------------------------------------------------

VERSE, CHORUS, OUTRO:
D#m C# A#m G#   barre chords(noel plays distorted;dolores plays clear)
play the last G#5 in the chorus like the Intro Riff 

Chorus:trumpet arranged to guitar "people are stranger.....":
E----------------------------------------------------------------
B--11----------11----------9----------9~~~-----------------------
G-----11----11----11----11---10----10----------------------------
D--------13----------11---------11-------------------------------Play twice
A----------------------------------------------------------------
E----------------------------------------------------------------
this part is very quiet on the record, but the live version is loud (and clear:-))
"ra la la la la......":			play first with this and by the 2nd chorus
						 with the intro riff 
E-----------9----------------------|--9---------------------------
B--11--9-11---11----9--9--11--9--11|------------------------------
G--------------------11------------|-----10-----------------------
D----------------------------------|------------------------------
A----------------------------------|------------------------------
E----------------------------------|------------------------------

Bridge: "loud and clear I make.....":
A#5 D#5 C5 G#5 play twice, (the last G#5 is the intro riff)
all chords are played with barre
Bridge trumpet arranged for guitar
E------11-------8-9-8-9-8-9-8-9-8-9-8-9-8-9-8-9------------------
B--11------11----------------------------------------------------
G----------------------------------------------------------------
D----------------------------------------------------------------
A----------------------------------------------------------------
E----------------------------------------------------------------

E--------------------------------------------------------------
B--11----------------------------------------------------------
G------10--13--12--10--12--10-12-10-8-10-12-10-~~--------------
D--------------------------------------------------------------
A--------------------------------------------------------------
E--------------------------------------------------------------
and the the trumpet intro 
Opening chord: D#m
            
Submit corrections


        Loud And Clear lessons Hard to play? Try these video lessons and learn fast Loud And Clear lessons
        
↑ Back to top | Tablatures and chords for acoustic guitar and electric guitar, ukulele, drums are parodies/interpretations of the original songs. You may use it for private study, scholarship, research or language learning purposes only