» » »

Cranberries - I Still Do Tabs

Artists:  A B C D E F G H I J K L M N O P Q R S T U V W X Y Z # 

I Still Do Tabs

(ver. 1) Click to play this song!
Cranberries
 Rating:
3.7/5 (6 votes)

 I Still Do lessons Tabs too difficult? Try these video lessons and learn fast
 
                my first tab,,
all the picking parts should be done fairly swiftly, and the chords should relate
to the rhythm of the song
a really pretty song may i add!
just fair warning that it's not exact,
do let me know if there's some notes that don't sound right or i screwed up somewhere,
enjoy:)

Intro

~ = hold a little longer, not too much

   Am                          F                           G
E--0~-----0-------0---------|--1~------1--------1--------|-3~-------3-------3----------|
B--1~---1---1---1---1---1---|--1~--1----1---1----1---1---|-0~---0----0---0---0---0-----|
G--2~----2---2---2---2---2--|--2~---2----2---2----2---2--|-0~----0----0---0---0---0----|
D--2~-----2-------2-------2~|--3~----3--------3--------3~|-0~-----0--------0-------0~--|
A--0~-----------------------|--3~------------------------|-2~--------------------------|
E--0~-----------------------|--0~------------------------|-3~--------------------------|

   E
E--0~------------|
B--0~---0---0----|
G--1~----1---1---| start strumming E strongly here after this riff,
D--2~-----2---2--| might wanna check out the song for the rhythm
A--2~------------|
E--0~------------|

Am  F  G  E x 1
(that high pitched voice in the background goes with this if you listen closely,
yes i had too much time on my hands)

Am                          F
    i'm not ready for this,   though i thought i would be
G                          E
   i can't see the future,    though i thought i could see
Am                              F
    i don't want to leave you,    even though i have to
G                            E
   i don't want to love you,    oh how(?) i still do

Am                                 F
    need some time to find myself,   i wanna live within(?)

G E x 1 (then that little riff that goes with E)

E----------|
B-0---0----|
G--1---1---|   x2
D---2---2--|
A----------|
E----------|

(start strumming these chords more strongly, some strums being more distinct then others,
again i'd check out the song for the rhythm)

Am                      F
   can I go my own way?   can I pray my own way?
G                            E
  i don't want to leave you,   oh i need you

(stop strumming so hard here, do it gently like previously)

Am                       F
   am I ready for this?    did I think I would be?
G                        E
  can I see the future?    no i can't see
Am                            F
   i don't want to leave you,   even though I have to
G                             E
   i don't want to love you,    oh how(?) i still do

(you can keep doing the chords Am F G E here, but i like to do a faint picking thing of 
riffs from the intro)

ah la da da da da..
oh how i still do

ah la da da da da..
oh how i still do

(fade out and go on to a quiet outro thing that i really just made up to make it sound final..)
E------|     |E------|     |E------|
B------|     |B------|     |B------|
G------| x8  |G------| x8  |G------| x8
D------|     |D------|     |D------|
A--0---|     |A--3---|     |A--2---|
E------|     |E------|     |E------|

end on an Am chord
            
Submit corrections


        I Still Do lessons Hard to play? Try these video lessons and learn fast I Still Do lessons
        
↑ Back to top | Tablatures and chords for acoustic guitar and electric guitar, ukulele, drums are parodies/interpretations of the original songs. You may use it for private study, scholarship, research or language learning purposes only