Home » C » Cranberries »

Cranberries - Daffodil Lament Tabs

Artists:  A B C D E F G H I J K L M N O P Q R S T U V W X Y Z # 

Daffodil Lament Tabs

(ver. 1) Click to play this song!
Cranberries
 Rating:
4/5 (4 votes)
                (Intro)
This is Daffodil Lament by the amazing Cranberries.
After watching the live in London DVD of theirs, i noticed the chords for this song.

Dolores and the guitarist play this song with a CAPO on 3RD.


e|---------------------------------------------------------------------------|
B|---------------------------------------------------------------------------|
G|---------------------------------------------------------------------------|
D|---2-----------------------------------------------------------------------|
A|---2-----------------------------------------------------------------------|
E|---------------------------------------------------------------------------|

e|-----------------------------------------------------------------------------|
B|-----------------------------------------------------------------------------|
G|-----------------------------------------------------------------------------|
D|-----------------------------------------------------------------------------|
A|-------2---------------------------------------------------------------------|
E|---------3-------------------------------------------------------------------|

e|-----------------------------------------------------------------------------|
B|-----------------------------------------------------------------------------|
G|-----------------------------------------------------------------------------|
D|-----------------------------------------------------------------------------|
A|-----------------------------------------------------------------------------|
E|-------2---------------------------------------------------------------------|


And here is the little part of guitar you can hear in the background.
This part uses hammer.

e|-----------------------------------------------------------------------------|
B|---------8-----0------5------0-----3-----0-------1------3-----1----0---------|
G|-----------------------------------------------------------------------------|
D|-----------------------------------------------------------------------------|
A|-----------------------------------------------------------------------------|
E|-----------------------------------------------------------------------------|


This next part comes when Dolores begins to sing "I have decided to leave you forever, i 
decided to start things from here, thunder and lightening won't change what i'm feeling 
the daffodils look lovely today, ay hey, look lovely today" etc.


e|-----------------------------------------------------------------------------|
B|-----------------------------------------------------------------------------|
G|-----------------------------------------------------------------------------|
D|-----------------------------------------------------------------------------|
A|-------2---------------------------------------------------------------------|
E|---------3-------------------------------------------------------------------|


e|-----------------------------------------------------------------------------|
B|-----------------------------------------------------------------------------|
G|-----------------------------------------------------------------------------|
D|-----------------------------------------------------------------------------|
A|-----------------------------------------------------------------------------|
E|-------2---------------------------------------------------------------------|


e|---------------------------------------------------------------------------|
B|---------------------------------------------------------------------------|
G|---------------------------------------------------------------------------|
D|---2-----------------------------------------------------------------------|
A|---2-----------------------------------------------------------------------|
E|---------------------------------------------------------------------------|

e|-----------------------------------------------------------------------------|
B|-----------------------------------------------------------------------------|
G|-----------------------------------------------------------------------------|
D|-----------------------------------------------------------------------------|
A|-----------------------------------------------------------------------------|
E|-------2---------------------------------------------------------------------|
            
Submit corrections

↑ Back to top | Tablatures and chords for acoustic guitar and electric guitar, ukulele, drums are parodies/interpretations of the original songs. You may use it for private study, scholarship, research or language learning purposes only