Home » C » Cramps »

Cramps - Human Fly Chords

Artists:  A B C D E F G H I J K L M N O P Q R S T U V W X Y Z # 

Human Fly Chords

(ver. 1) Click to play this song!
Cramps
[Intro]
 
e|-----------------------------------------------------------------------------------|
B|-----------------------------------------------------------------------------------|
G|-----------------------------------------------------------------------------------|
D|-----------------------------------------------------------------------------------|
A|--12--12--11--11--10--10--9--9--8--8--7--7--6--6--5--5--4--4--3--3--2--2--1--1--0--|
E|-----------------------------------------------------------------------------------|
 
Am Dm Am Em Am
 
[Verse]
           Am
Well I'm a human fly
          Am
I, I said F-L-Y
      Am
I say buzz buzz buzz
         Am
And it's just becuz
      Am
I'm a human fly
       Am
And I don't know why
      Am                  E5
I got 96 tears and 96 eyes
        Am
I got a garbage brain
               Am
That's driving me insane
       Am
And I don't like the ride
             Am
So push that pest aside
         Am
And baby I won't care
          Am
'Cuz baby I don't scare
            Am                             E5
'Cuz I'm a reborn maggot using germ warfare
 
 
[Instrumental]
 
    Dm                                                   Am
    Rock
e|-----------------------------------------------------|-----------------------------------------:|
B|-----------------------------------------------------|-----------------------------------------:|
G|-----------------------------------------5--4--3--2--|-----------------------------------------:|
D|--0--------------------------------------------------|-----------------------------5--4--3--2--:|
A|--0--------------------------------------------------|--0--------------------------------------:|
E|-----5--4--4--5--5--6--6--5--5--4--4-----------------|--0--0--1--1--0--0--1--1-----------------:|
 
Em  Am
 
 
[Verse 3]
      Am
I'm a human fly
       Am
I said F-L-Y
      Am
I say bzz bzz bzz
         Am
And it's just becuz
         Am
I'm an unzipped fly
      Am
And I don't know why
      Am
And I don't know why
      Am            E5
But I say
 
 
[Chorus]
Am
Bzzzzzzz
Am
Rock tonight, and I say
Am
Bzzzzzzz
Am
Rocket ride, and I say
Am
Bzzzzzzz
       Am
But I don't know why
            Am
Aw, I just don't know why
Am           E5
 
 
[Outro]
    Am
e|-----------------------------------------------------------------------------------|
B|-----------------------------------------------------------------------------------|
G|-----------------------------------------------------------------------------------|
D|-----------------------------------------------------------------------------------|
A|-----------------------------------------------------------------------------------|
E|--12--12--11--11--10--10--9--9--8--8--7--7--6--6--5--5--4--4--3--3--2--2--1--1--0--|
            
Submit corrections

↑ Back to top | Tablatures and chords for acoustic guitar and electric guitar, ukulele, drums are parodies/interpretations of the original songs. You may use it for private study, scholarship, research or language learning purposes only