» » »

Courtney Barnett - Charity Tabs

Artists:  A B C D E F G H I J K L M N O P Q R S T U V W X Y Z # 

Charity Tabs

(ver. 1) Click to play this song!
Courtney Barnett
 Rating:
4.3/5 (9 votes)

 Charity lessons Tabs too difficult? Try these video lessons and learn fast
 
                [Intro]
   F#  G#m  E F# B F#   G#m E F# B
e|---------------------------------------------------------------------------|
B|----------9-7--------------------------------------------------------------|
G|-8868-886------8-8868-88644-3--4-----3-4-----------------------------------|
D|---------9----------------------444----------------------------------------|
A|---------------------------------------------------------------------------|
E|---------------------------------------------------------------------------|
 
[Verse 1]
     F#    G#m    E     F#     B
e|---2------4-----0-----2------7---------------------------------------------|
B|---2------4-----0-----2------7---------------------------------------------|
G|---3------4-----1-----3------8---------------------------------------------| (x4)
D|---4------6-----2-----4------9---------------------------------------------|
A|---4------6-----2-----4------9---------------------------------------------|
E|---2------4-----0-----2------7---------------------------------------------|

[Pre-Chorus]
e|---------------------------------------------------------------------------|
B|---------------------------------------------------------------------------|
G|-1h2-1h2-1h2-1h2-----------------------------------------------------------|
D|-----------------1h2-1h2-1h2-1h2-------------------------------------------|
A|---------------------------------------------------------------------------|
E|---------------------------------------------------------------------------|

[Chorus]
   E  B  C#m  A             E  B  C#7            
e|-0--7---4---5-------------0--7---4------------------------------------------------|
B|-0--7---5---6-------------0--7---6------------------------------------------------|
G|-1--8---6---7---6-9-6-4---1--8---4------------------------------------------------| (x2)
D|-2--9---6---7-------------2--9---6------------------------------------------------|
A|-2--9---4---5-------------2--9---4------------------------------------------------|
E|-0--7---4---5-------------0--7---4------------------------------------------------|

[Post-Chorus]
e|---------------------------------------------------------------------------|
B|---------------------------------------------------------------------------|
G|---------------------------------------------------------------------------|
D|---------------------------------------------------------------------------|
A|-4h6-4-2-----2-------------------------------------------------------------|
E|----------1h3-3------------------------------------------------------------|

[Verse 2]
     F#    G#m    E     F#     B
e|---2------4-----0-----2------7---------------------------------------------|
B|---2------4-----0-----2------7---------------------------------------------|
G|---3------4-----1-----3------8---------------------------------------------| (x4)
D|---4------6-----2-----4------9---------------------------------------------|
A|---4------6-----2-----4------9---------------------------------------------|
E|---2------4-----0-----2------7---------------------------------------------|

[Chorus]
   E  B  C#m  A             E  B  C#7            
e|-0--7---4---5-------------0--7---4------------------------------------------------|
B|-0--7---5---6-------------0--7---6------------------------------------------------|
G|-1--8---6---7---6-9-6-4---1--8---4------------------------------------------------| (x2)
D|-2--9---6---7-------------2--9---6------------------------------------------------|
A|-2--9---4---5-------------2--9---4------------------------------------------------|
E|-0--7---4---5-------------0--7---4------------------------------------------------|

[Post-Chorus]
e|---------------------------------------------------------------------------|
B|---------------------------------------------------------------------------|
G|---------------------------------------------------------------------------|
D|---------------------------------------------------------------------------|
A|-4h6-4-2-----2-------------------------------------------------------------|
E|----------1h3-3------------------------------------------------------------|

[Re-Intro]
   F#  G#m  E F# B F#   G#m E F# B
e|---------------------------------------------------------------------------|
B|----------9-7--------------------------------------------------------------|
G|-8868-886------8-8868-88644-3--4-----3-4-----------------------------------|
D|---------9----------------------444----------------------------------------|
A|---------------------------------------------------------------------------|
E|---------------------------------------------------------------------------|

[Verse 3]
     F#    G#m    E     F#     B
e|---2------4-----0-----2------7---------------------------------------------|
B|---2------4-----0-----2------7---------------------------------------------|
G|---3------4-----1-----3------8---------------------------------------------| (x4)
D|---4------6-----2-----4------9---------------------------------------------|
A|---4------6-----2-----4------9---------------------------------------------|
E|---2------4-----0-----2------7---------------------------------------------|

[Chorus]
   E  B  C#m  A             E  B  C#7            
e|-0--7---4---5-------------0--7---4------------------------------------------------|
B|-0--7---5---6-------------0--7---6------------------------------------------------|
G|-1--8---6---7---6-9-6-4---1--8---4------------------------------------------------| (x4)
D|-2--9---6---7-------------2--9---6------------------------------------------------|
A|-2--9---4---5-------------2--9---4------------------------------------------------|
E|-0--7---4---5-------------0--7---4------------------------------------------------|

[Outro]
e|---------------------------------------------------------------------------|
B|---------------------------------------------------------------------------|
G|---------------------------------------------------------------------------|
D|---------------------------------------------------------------------------|
A|-4h6-4-2-----2-------------------------------------------------------------|
E|----------1h3-3------------------------------------------------------------|

            
Submit corrections


        Charity lessons Hard to play? Try these video lessons and learn fast Charity lessons
        
↑ Back to top | Tablatures and chords for acoustic guitar and electric guitar, ukulele, drums are parodies/interpretations of the original songs. You may use it for private study, scholarship, research or language learning purposes only