Home » C » Counterparts »

Counterparts - Collapse Tabs

Artists:  A B C D E F G H I J K L M N O P Q R S T U V W X Y Z # 

Collapse Tabs

(ver. 1) Click to play this song!
Counterparts
0:00-0:20
e|---------------------------------------------------------------------------|
B|---------------------------------------------------------------------------|
G|---11---9---7--------11--14---9-----11--9---7-----11--14---9---11--7---7777|
D|---9---7---5---------9---12---7-----9---7---5-----9---12---7---9---5---5555|
A|---9---7---5---------9---12---7-----9---7---5-----9---12---7---9---5---5555|
E|---9---7---5---------9---12---7-----9---7---5-----9---12---7---9---5---5555|
0:20-0:38
e|---------------------------------------------------------------------------|
B|---------------------------------------------------------------------------|
G|---7---9---11---7---9------------------7---9---11---7---9------------------|
D|---5---7---9----5---7---9---7h9---XX---5---7---9----5---7---4--------------|
A|---5---7---9----5---7---9---7h9---XX---5---7---9----5---7---5--------------|
E|---5---7---9----5---7---9---7h9---XX---5---7---9----5---7---4(not 100% idk)|
0:38-1:35
e|---------(i know this part, can be confusing, watch the cover for help)----|
B|---------------------------------------------------------------------------|
G|---------------------------------------------------------------------------|
D|------7------------11----------11brb----------11---------------------------|
A|----------9------------12------------12----------12------------------------|
E|--7p5----------7-7---------9-9------------9-9---------7--------------------|

e|---------------------------------------------------------------------------|
B|---------------------------------------------------------------------------|
G|---------------------------------------------------------------------------|
D|------7------------11-------12---11---7------------------------------------|
A|----------9------------12--------------------------------------------------|
E|--5-5----------7-7---------------------------------------------------------|

e|---------------------------------------------------------------------------|
B|---------------------------------------------------------------------------|
G|---------------------------------------------------------------------------|
D|------7------------11----------11brb----------11---------------------------|
A|----------9------------12------------12----------12------------------------|
E|--7p5----------7-7---------9-9------------9-9---------7--------------------|

e|---------------------------------------------------------------------------|
B|------------------------------------------7--------------------------------|
G|------------------------------------------7--------------------------------|
D|------7--------7-7---4-4---9-9--7\--------5--------------------------------|
A|----------9----7-7---5-5---9-9--7\--------5--------------------------------|
E|--5-5----------7-7---4-4---9-9--7\--------5--------------------------------|

e|---------------------------------------------------------------------------|
B|---7--------------5----------------------------7---------------------------|
G|---7-----------7----7--6-----------------------7------6brb-----------------|
D|---5----------------------9---7---12---11\-----5---------------------------|
A|---5----------------------9---7---12---12\-----5---------------------------|
E|---5----------------------9---7---12---11\-----5---------------------------|
     pppp      pp pp    (no more strumming patterns :})
                                (1:14) it's just a small break
e|--------------------------------|------------------------------------------|
B|------------------------------7-|-7----5----------10----------10-----------|
G|------------------------------7-|-7--7--7-6----11----11----9-----9---------|
D|---99999\----99-99----9---7---5-|-5----------9------------7----------------|
A|---99999\----99-99----9---7---5-|-5----------9------------7----------------|
E|---99999\----99-99----9---7---5-|-5----------9------------7----------------|

e|---------------------------------------------------------------------------|
B|---7-----6---------------------------------7-----10-----10----10----10-----|
G|---7---7---7-5-----------------------------7--------11--11-------9--9------|
D|---5-------------9---7---12---11---9---7---5------------9-----------7------|
A|---5-------------9---7---12---12---9---7---5------------9-----------7------|
E|---5-------------9---7---12---11---9---7---5------------9-----------7------|
1:36-2:08
e|---------------------------------------------------------------------------|
B|---7----10-----10---10----10-----------------------------------------------|
G|---7-------11--11------9--9------------------------------------------------|
D|---5-----------9----------7---x3-------------------------------------------|
A|---5-----------9----------7------------------------------------------------|
E|---5-----------9----------7------------------------------------------------|
2:08-
e|---------------------------------------------------------------------------|
B|--10--10--7----------------10-------10------------------7------------------|
G|--11--9---7----------------11--14---9---7---------------7------------------|
D|--9---7---5--5555-4444-----9---12---7---5--5555-4444----5------------------|
A|--9---7---5--5555-5555-----9---12---7---5--5555-5555----5------------------|
E|--9---7---5--5555-4444-----9---12---7---5--5555-4444----5------------------|            
Submit corrections

↑ Back to top | Tablatures and chords for acoustic guitar and electric guitar, ukulele, drums are parodies/interpretations of the original songs. You may use it for private study, scholarship, research or language learning purposes only