» » »

Corrosion Of Conformity - 13 Angels Tabs

Artists:  A B C D E F G H I J K L M N O P Q R S T U V W X Y Z # 

13 Angels Tabs

(ver. 1) Click to play this song!
Corrosion Of Conformity
 Rating:
4.3/5 (9 votes)

 13 Angels lessons Tabs too difficult? Try these video lessons and learn fast
 
                [Intro]
                                                                                    x2
d|-----------------------------------------------------------------------------------|
A|-----------------------------------------------------------------------------------|
F|-----------------------------------------------------------------------------------|
C|----------------------------------------------------------------3-5-5br~--7/9-7\5--|
G|--3/5-5-5-5\3p0-3---3/5-5-5-5br\3p0h3---3/5-5-5-5\3p0-3-3/5-3-0-3-5----------------|
D|----------------------------------------------------------------1-3----------------|

0:35
d|-----------------------------------------------------------------------------|
A|-----------------------------------------------------------------------------|
F|---------------------------------------10h12-12br-10h12-10~------------------|
C|-7/9--7\5-h7--7/9--7\5-h7--10-12-10h12---------------------------------------|
G|-----------------------------------------------------------------------------|
D|-----------------------------------------------------------------------------|


[Verse] 0:50

Guitar 1            x3
d|-------------------|---------------------|
A|-------------------|---------------------|
F|-------------------|---------------------|
C|-------------------|----------3-5--5br~--| WHOLE THING x2
G|--3/5-5-5-5\3p0-3--|--3/5-3p0-3-5--------|
D|-------------------|----------1-3--------|

Guitar 2                                                                             x2
d|--------------------------------------------------------------------------------------|
A|--------------------------------------------------------------------------------------|
F|---------------------------------------------10h12-12br-10h12-10~--------10-----------|
C|--7/9--7/9--7\5-h7--7/9--7\5-h7--10-12-10h12-----------------------10h12----h12-------|
G|--------------------------------------------------------------------------------10/12-|
D|--------------------------------------------------------------------------------------|


CHORUS.  1:23

d|--------------------------------------------------------------------------------------------------|
A|--------------------------------------------------------------------------------------------------|
F|---------------x-5-5------5/7-7-7--7---5---5/7-7-7--7---5---------5br-5-x-5-5---------------------|
C|--3--2--3--5---x-5-5------5/7-7-7--7---5---5/7-7-7--7---5---3--2--5br-5-x-5-5------------------5--|
G|--3--2--3--5---x-3-3--3p0-3/5-5-5--5-0-3---3/5-5-5--5-0-3---3--2------3-x-3-3--3---3-5-5-5/8-5-5--|
D|--1--0--1--3------------------------------------------------1--0-----------------5-------------3--|

CHORUS cont.
d|---------------------------------------|
A|---------------------------------------|
F|---------------------------------------|
C|--------------5--7/10-5\3-5/7\5-3h5b~--|
G|--3-5-5-5/8-5-5------------------------|
D|--------------3------------------------|


[Verse 2]
Guitar 2 Fills 
  2:07                      2:23
d|-------------------------|--------------------------------------------------|
A|-------------------------|-----------8~-------------------------------------|
F|-----10-12brp10-9--9\7~--|------10~--9~--14br-12-10-9-10-7--5\2-5-----------|
C|--12---------------------|--5h7-----------------------------------0-0-------|
G|-------------------------|--------------------------------------------------|
D|-------------------------|--------------------------------------------------|

  2:35
d|-------------------------------------------------------------------------------|
A|-------------------------------------------------------15~--13p10--------------|
F|---------------------------10-12-12br-10----10----12--------------10----10h12--|
C|--7/9-7\5-h7-10--12--10-12---------------12----12--------------------12--------|
G|-------------------------------------------------------------------------------|
D|-------------------------------------------------------------------------------|


[Chorus]
d|--------------------------------------------------------------------------------------------------|
A|--------------------------------------------------------------------------------------------------|
F|---------------x-5-5------5/7-7-7--7---5---5/7-7-7--7---5---------5br-5-x-5-5---------------------|
C|--3--2--3--5---x-5-5------5/7-7-7--7---5---5/7-7-7--7---5---3--2--5br-5-x-5-5------------------5--|
G|--3--2--3--5---x-3-3--3p0-3/5-5-5--5-0-3---3/5-5-5--5-0-3---3--2------3-x-3-3--3---3-5-5-5/8-5-5--|
D|--1--0--1--3------------------------------------------------1--0-----------------5-------------3--|

CHORUS cont.
d|---------------------------------------|
A|---------------------------------------|
F|---------------------------------------|
C|--------------5--7/10-5\3-5/7\5-3h5b~--|
G|--3-5-5-5/8-5-5------------------------|
D|--------------3------------------------|


[Bridge]
3:07                      x3
d|--------------------------|-----------------------|
A|--------------------------|-----------------------|
F|------5/7-7-7--7\3-3-3-3--|-----------------------|
C|------5/7-7-7--7\3-3-3-3--|--3-3--5br-5-----------| WHOLE THING x2
G|--3p0-3/5-5-5--5\1-1-1-1--|--3-3--5br-5--3h5-8p5--|
D|--------------------------|--1-1--3br-3-----------|

3:39
d|------------------------------------------------------------------------------------|
A|------------------------------------------------------------------------------------|
F|------------------------------------------------------------------------------------|
C|----------------------5--------------5---7/10--5\3--5/7\5--3------------7\5--5/7-7--|
G|--3---3-5-3-5-5-5/8-5-5--3-5-5-5/8-5-5-----------------------5----------------------|
D|----5-----------------3--------------3----------------------------------------------|


[Verse 3]
Guitar 2 Fills
4:12                                       4:29
d|----------------------------------------|---------------------------------------|
A|--10--9--------------/15-12--15~--------|---------------------------------------|
F|--10--9--10----10-10-------------12-----|-------------------10h12-12br-12br-10--|
C|--10--------12----------------------15--|--7/10-10/12-10h12---------------------|
G|----------------------------------------|---------------------------------------|
D|----------------------------------------|---------------------------------------|


[Chorus]
d|--------------------------------------------------------------------------------------------------|
A|--------------------------------------------------------------------------------------------------|
F|---------------x-5-5------5/7-7-7--7---5---5/7-7-7--7---5---------5br-5-x-5-5---------------------|
C|--3--2--3--5---x-5-5------5/7-7-7--7---5---5/7-7-7--7---5---3--2--5br-5-x-5-5------------------5--|
G|--3--2--3--5---x-3-3--3p0-3/5-5-5--5-0-3---3/5-5-5--5-0-3---3--2------3-x-3-3--3---3-5-5-5/8-5-5--|
D|--1--0--1--3------------------------------------------------1--0-----------------5-------------3--|

CHORUS cont.
d|---------------------------------------|
A|---------------------------------------|
F|---------------------------------------|
C|--------------5--7/10-5\3-5/7\5-3h5b~--|
G|--3-5-5-5/8-5-5------------------------|
D|--------------3------------------------|


[Bridge]
d|--------------------------|-----------------------|
A|--------------------------|-----------------------|
F|------5/7-7-7--7\3-3-3-3--|-----------------------|
C|------5/7-7-7--7\3-3-3-3--|--3-3--5br-5-----------| WHOLE THING x2
G|--3p0-3/5-5-5--5\1-1-1-1--|--3-3--5br-5--3h5-8p5--|
D|--------------------------|--1-1--3br-3-----------|


[Outro]
Guitar 2 while BRIDGE continues
5:32
d|---------------------------------------------------------------------------|
A|--10~--13~--15~--10~--13~--15~--10~--13~--15~--20~--18~--17~-17-18-17-15~--|
F|---------------------------------------------------------------------------|
C|---------------------------------------------------------------------------|
G|---------------------------------------------------------------------------|
D|---------------------------------------------------------------------------|

5:47
d|--------------------------------------------------------------------------------|
A|--15~--13~--11~--8br--15~--13~--11~--8br--15~--13~--11~--8br--8----8br-8----8~--|
F|----------------------------------------------------------------10-------10-----|
C|--------------------------------------------------------------------------------|
G|--------------------------------------------------------------------------------|
D|--------------------------------------------------------------------------------|

6:06
d|-------------------------------------------|
A|-------------------------------------------|
F|--------------------5----------------------|
C|--------3-------5h7---5-3-5/7-5-3----------|
G|--3h5-5---5-----------------------h5-5~~~--|
D|------------3------------------------------|            
Submit corrections


        13 Angels lessons Hard to play? Try these video lessons and learn fast 13 Angels lessons
        
↑ Back to top | Tablatures and chords for acoustic guitar and electric guitar, ukulele, drums are parodies/interpretations of the original songs. You may use it for private study, scholarship, research or language learning purposes only