Home » C » Coral »

Coral - So Long Ago Bass

Artists:  A B C D E F G H I J K L M N O P Q R S T U V W X Y Z # 

So Long Ago Bass

(ver. 1) Click to play this song!
Coral
The Coral - So Long Ago


Intro
G|-13-----18-----------------------|
D|---------------------------------|
A|--------------------------2-22-2-|
E|-------------------5-55-5--------|

Verse
G|-------------------------------------9-9-|
D|-----------------------------------------|
A|-7-77------7-77------7-77------7-77------|
E|------5-55------7-77------5-55-----------|

G|-----------------------------------------|
D|-----------------------------------------|
A|-7-77------7-77------7-77------7-77------|
E|------5-55------7-77------5-55-----------|

Pre-Chorus
G|-13-14-16------------------------------------------|
D|---------------------------------------------------|
A|----------------7-77------7-77------7-77------7-77-|
E|-----------5-55------5-55------7-77------5-55------|

Chorus
G|-------------------------------13-14-16-18-16-14----------------|
D|----------------------------------------------------------------|
A|-3-33-3-33--7-77-7-77--3---------------------------------2-22-2-|
E|--------------------------------------------------5-55-5--------|

Verse
G|-------------------------------------9-9-|
D|-----------------------------------------|
A|-7-77------7-77------7-77------7-77------|
E|------5-55------7-77------5-55-----------|

G|-----------------------------------------|
D|-----------------------------------------|
A|-7-77------7-77------7-77------7-77------|
E|------5-55------7-77------5-55-----------|

Pre-Chorus
G|-13-14-16------------------------------------------|
D|---------------------------------------------------|
A|----------------7-77------7-77------7-77------7-77-|
E|-----------5-55------5-55------7-77------5-55------|

Chorus
G|----------------------------------13-14-16-18-16-14-13-14-16-18-16-14---|
D|------------------------------------------------------------------------|
A|-3-33-3-33--7-77-7-77--3------------------------------------------------|
E|------------------------------------------------------------------------|

G|-----------------------------|
D|-----------------------------|
A|---------------2-22-2-2-22-2-|
E|-5-55-5-5-55-5---------------|

Solo                          x4  
G|-----------------------------|---------------|
D|-----------------------------|---------------|
A|---------------2-22-2-2-22-2-|---------------|
E|-5-55-5-5-55-5---------------|-5-55-5-5-55-5-|

Pre-Chorus
G|-13-14-16------------------------------------------|
D|---------------------------------------------------|
A|----------------7-77------7-77------7-77------7-77-|
E|-----------5-55------5-55------7-77------5-55------|

Final Chorus                  x3  
G|-----------------------------|
D|-----------------------------|
A|-3-33-3-3-33-3-7-77-7-7-77-7-|
E|-----------------------------|

Outro                               x4
G|-----|-----------------------------|--------------|
D|-----|-----------------------------|--------------|
A|-3---|-4-44-4-4-44-4-7-77-7-7-77-7-|-7------------|
E|-----|-----------------------------|--------------|
            
Submit corrections

↑ Back to top | Tablatures and chords for acoustic guitar and electric guitar, ukulele, drums are parodies/interpretations of the original songs. You may use it for private study, scholarship, research or language learning purposes only