Home » C » Coral »

Coral - Dreamin Of You Bass

Artists:  A B C D E F G H I J K L M N O P Q R S T U V W X Y Z # 

Dreamin Of You Bass

(ver. 1) Click to play this song!
Coral
Verse

G ---------------------------------------------------------------------
D 7-7---7-7------------------------------------------------------------
A ---7-----7-7h8-8---7h8-8---8-8--------------------8-8---8-7-8-10-----
E -----------------8--------8------8---Last time---------8----------8--

Chorus

G----------------------------------------------------------------------
D----------------------------------------------------------------------
A------------10-10----10-10--9-8-8---8-8--------12-12------8 8---8-(8-7 x4)
E-8-8-8-8-10-------10--------------8-----8-/-12-------12\8-----8------


During Solo Verse - Then

G-----------------------------------------------------------------------------
D-----------------------------------------------------------------------------
A-8-8---8-7-8-10-\-3-3-3-3-3-0---------------------------------------------*ending* 8-7
E-----8------------------------3-3-3-3-3\1-1-1-1/3/5-5-5-5\3\1-1-1-1/3/5 5----


Sorry if its confusing but if you dont understand it please contact me
            
Submit corrections

↑ Back to top | Tablatures and chords for acoustic guitar and electric guitar, ukulele, drums are parodies/interpretations of the original songs. You may use it for private study, scholarship, research or language learning purposes only