Home » C » Connie Francis »

Connie Francis - My Happiness Tabs

Artists:  A B C D E F G H I J K L M N O P Q R S T U V W X Y Z # 

My Happiness Tabs

(ver. 1) Click to play this song!
Connie Francis
Chords I use below

  A   D  D   E7  BM7   A slide to B  B7     Cdim
--5------2--------2-------------------2-----2--
--5---7--3---5----3----2----------4---0-----1--
--6---7--2---7----4----2----------4---2-----2--
--7---7------6---------2----------4---1-----1--
-------------7------------------------2--------
-----------------------------------------------

   A                   D                                   A              
e|---------------------------------------------------------------------------|
B|---------------------7-------7-----10----9---7-----7-----------------------|
G|-----------6-----9--------7------------------------------9---------6-------|
D|--7----9------------------------------------------------------7------------|
A|---------------------------------------------------------------------------|
E|---------------------------------------------------------------------------|
 1.Even  in' sha  dows make me blue, when each wea   ry   day   is   thru   
 2.Ever  y   day   I   rem  i nisce, Dream ing of   your  ten   der  kiss   
 3.Where the skies are gray or blue, An----y   place on   earth will do

                   E7                        A
e|---------------------------------------------------------------------------|
B|9----7---------------------------------------------------------------------|
G|---------9----8---7--------7-----7--6--------------------------------------|
D|-----------------------9----------------9--7-------------------------------|
A|---------------------------------------------------------------------------|
E|---------------------------------------------------------------------------|
1.How  I   long to  be  with you   my hap pi ness. (verse 2)
2.Al  ways thinking how  I   miss  my hap pi ness  ( Chorus)
3.Just as  long as  I'm with you   my hap pi ness

(Chorus)                                      optional
     D               Bm7             A        (Cdim)        A
e|--------------------5----4-------------------------------------------------|
B|---7--7---6-----7-------------7----7---5---5---4------7---5----------------|
G|---------------------------------------------------------------------------|
D|7--------------------------------------------------------------------------|
A|---------------------------------------------------------------------------|
E|---------------------------------------------------------------------------|
  A million years it seams have gone by since we shared our dreams.



           B          B7               D                E7
e|---------------------------------------------------------------------------|
B|--------------------7----7--------9--10--10--10-9-7------------------------|
G|6---6---------8---9-----------------------------------9--------------------|
D|---------9-----------------------------------------------------------------|
A|---------------------------------------------------------------------------|
E|---------------------------------------------------------------------------|
  But I'll hold you again, there'll be no blue memories then. (go to verse 3)


  A run I use at end of the verses and at the end if u want to use it.

e|---------------------------------------------------------------------------|
B|---------------------------------------------------------------------------|
G|-------6--7-7--6-----------------------------------------------------------|
D|-7--9-------------9--7-----------------------------------------------------|
A|---------------------------------------------------------------------------|
E|---------------------------------------------------------------------------|            
Submit corrections

↑ Back to top | Tablatures and chords for acoustic guitar and electric guitar, ukulele, drums are parodies/interpretations of the original songs. You may use it for private study, scholarship, research or language learning purposes only