» » »

Collective Soul - Burning Bridges Tabs

Artists:  A B C D E F G H I J K L M N O P Q R S T U V W X Y Z # 

Burning Bridges Tabs

(ver. 1) Click to play this song!
Collective Soul
 Rating:
4/5 (7 votes)


 Burning Bridges lessons Tabs too difficult? Try these video lessons and learn fast
 
                #


Standard tuning.

I was never able to find a correct version of this song, so I figured the right
version out for myself.  This is lead only, I don't have the time to figure out
the second guitar, but it sounds good with just the lead.  Enjoy.

INTRO/VERSE:

e|---3--3-3-3----3--3-3-3----3--3-3-3-3-2-0h2-|
B|---3--3-3-3----3--3-3-3----3--3-3-3-3-3-3-3-|
G|------------------------------------2-2-2-2-|
D|--------------------------------------------|
A|---2--2-2-2-------------3--3--3-3-3---------|
E|3--3--3-3-3-1-------------------------------|
     ^
     Been thinkin' a lot...

PRE-CHORUS:

e|---3-3--3-3-3-3--3-3-3-3-|
B|---3-3--3-3-3-3--3-3-3-3-|
G|--------------2--2-2-2-2-|
D|-------------------------|
A|3--3-3--3-3-3------------|
E|-------------------------| (2X)
  ^
  time...I give all to you...

CHORUS:

e|---3--3-3-3----3-3-3-3--3-3-3-3-3-3-3-3-----------|
B|---3--3-3-3----3-3-3-3--3-3-3-3-3-3-3-3-----------|
G|------------------------2-2-2-2-----2-2-----------|
D|--------------------------------------------------|
A|---2--2-2-2----2-2-2-2----------3-3---------------|
E|3--3--3-3-3-0--------------------------3-(repeats)|
     ^
     So I'll lift you up and...

BRIDGE:

e|-x-3--3-3-3-3-3--3-3-3-|
B|-x-3--3-3-3-3-3--3-3-3-|
G|-x---------------------|
D|-x---------------------|
A|-x-3--3-3-3-2-2--2-2-2-|
E|-x----------3-3--3-3-3-| (3X)
      ^
      Take all my world...

e|-3-3-2-2-2-2-3-3-3------------------|
B|-3-3-3-3-3-3-3-3-3------------------|
G|-2-2-2-2-2-2-2-2-2------------------|
D|------------------------------------|
A|------------------------------------|
E|-------------------3-(back to verse)|
   ^
   world is changing...

LYRICS:

(verse 1)
Been thinkin' a lot about my ways
I guess I'm tryin', baby
Been searchin' out a way to say
I guess I'm sorry, baby

(pre-chorus)
This time I give all to you and
It's time I prove something to you

(chorus)
So I'll lift you up and hold you near
I'll warm your heart and calm your fears
See I don't wanna lose this love I found
So I'll burn my bridges, burn them down

(verse 2)
Been hurtin' a lot without you here
I guess I need you baby
Been sleepin' upon a bed of tears
I guess I miss you baby

(pre-chorus)

(chorus)

(bridge)
Take all my world and shake it
You take my dear heart and embrace it
You take what I say and you listen
My world is changing, changing for you

(chorus 2x)
            
Submit corrections



        Burning Bridges lessons Hard to play? Try these video lessons and learn fast Burning Bridges lessons
        
↑ Back to top | Tablatures and chords for acoustic guitar and electric guitar, ukulele, drums are parodies/interpretations of the original songs. You may use it for private study, scholarship, research or language learning purposes only