Home » C » Colin Hay »

Colin Hay - Waiting For My Real Life To Begin Tabs

Artists:  A B C D E F G H I J K L M N O P Q R S T U V W X Y Z # 

Waiting For My Real Life To Begin Tabs

(ver. 1) Click to play this song!
Colin Hay
[Intro]
E|---3---2---0---0---0---0-----0---3---x---x---|
B|---3---3---3---3---3---0h1---1---0---1---3---|
G|---0---2---0---2---0---0-----0---0---0---0---|
D|---0---0---2---0---0---0h2---2---0---0---0---|
A|---2---x---3---0---2---0-----0---2---x---2---|
E|---3---x---x---2---3---3-----3---3---x---x---|
 
 
[Verse 1]
E|-----------0----2-------------0---------0-----0---3---x-----------0---------------0---0---0----0---|
B|-----------3----3-------------3---------0h1---1---0---1-----------3---------------3---3---3----1---|
G|-----------0----2-------------0---------0-----0---0---0-----------0---------------0---0---0----0---|
D|-----------2----0-------------0---------0h2---2---0---0-----------0---------------2---0---2----2---|
A|-----------3----x-------------2---------0-----0---2---0-----------2---------------3---2---0----0---|
E|-----------x----x-------------3---------3-----3---3---x-----------x---------------x---x---x----x---|
 
  Any minute now,   my ship is coming in                  I'll keep checking the horiiiiiiiizon
 
 
E|---------------3---x---0---|
B|---1p0---------0---1---3---|
G|---------2p0---0---0---0---|
D|---------------0---0---0---|
A|---------------2---0---2---|
E|---------------3---x---x---|
 
E|------------------0----------2----------------0-----------0-----0---3---x---0---------------0----0----0----|
B|------------------3----------3----------------3-----------0h1---1---0---1---3---------------3----3----3----|
G|------------------0----------2----------------0-----------0-----0---0---0---0---------------0----0----0----|
D|------------------2----------0----------------0-----------0h2---2---0---0---0---------------2----0----2----|
A|------------------3----------x----------------2-----------0-----0---2---0---2---------------3----2----0----|
E|------------------x----------x----------------3-----------3-----3---3---x---x---------------x----x----x----|
 
  And I'll stand on   the bow,   feel the waves   come crashing                 Come crashing down down down,
 
E|---0--0---0-----0---3---x---0------------------------------------------|
B|---1--3---0h1---1---0---1---3------------------------------------------|
G|---0--0---0-----0---0---0---0------------------------------------------|
D|---2--0---0h2---2---0---0---0------------------------------------------|
A|---0--2---0-----0---2---0---2------------------------------------------|
E|---x--3---3-----3---3---x---x------------------------------------------|    
 
     on me
 
 
[Chorus]
E|-------------0----3--------2------------------0-------------2-----------0----x---0---|
B|-------------3----3--------3------------------3-------------3-----------3----1---3---
G|-------------0----0--------2------------------0-------------2-----------0----0---0---|
D|-------------2----0--------0------------------2-------------0-----------0----0---0---|
A|-------------3----2--------x------------------3-------------x-----------2----0---2---|
E|-------------x----3--------x------------------x-------------x-----------3----x---x---|
 
  And you say,   be still my love  open up your heart let the light shine in
 
E|---0--------3--------2---------------------0------------2--------------0----------0----------|
B|---3--------3--------3---------------------3------------3--------------3----------3----------|
G|---0--------0--------2---------------------0------------2--------------0----------0----------|
D|---2--------0--------0---------------------2------------0--------------2----------0----------|
A|---3--------2--------x---------------------3------------x--------------3----------2----------|
E|---x--------3--------x---------------------x------------x--------------x----------3----------|
 
        Don't you understand  I already have   a plan I'm waiting for my real life to begin
 
 
[Interlude]
E|---0---0-----0---3---0---0---0---0-----0---3---x---0---|
B|---3---0h1---1---0---3---3---3---0h1---1---0---1---3---|
G|---0---0-----0---0---2---0---0---0-----0---0---0---0---|
D|---0---0h2---2---0---0---2---0---0h2---2---0---0---0---|
A|---2---0-----0---2---0---3---2---0-----0---2---0---2---|
E|---3---3-----3---3---2---x---3---3-----3---3---x---x---|
 
[Verse 2]
E|-------------0--------2------------------0---------0-----0---3---x---0------------0---0---0----0---|
B|-------------3--------3------------------3---------0h1---1---0---1---3------------3---3---3----1---|
G|-------------0--------2------------------0---------0-----0---0---0---0------------0---0---0----0---|
D|-------------2--------0------------------0---------0h2---2---0---0---0------------2---0---2----2---|
A|-------------3--------x------------------2---------0-----0---2---0---2------------3---2---0----0---|
E|-------------x--------x------------------3---------3-----3---3---x---x------------x---x---x----x---|
 
  When I awoke   today,   suddenly nothing happened                       But in my dreeeaaaams
 
E|-------3------x-------0----------------0-----2-----------------0-----0-----0---|
B|-------0------1-------3----------------3-----3-----------------3-----0h1---1---|
G|-------0------0-------0----------------0-----2-----------------0-----0-----0---|
D|-------0------0-------0----------------2-----0-----------------0-----0h2---2---|
A|-------2------0-------2----------------3-----x-----------------2-----0-----0---|
E|-------3------x-------x----------------x-----x-----------------3-----3-----3---|
 
  I slew the dragon and down this beaten path,   up this cobbled lane
 
E|---3---x---0-------------0---0---0----0-------------0---------0-----0---3---x---0---|
B|---0---1---3-------------3---3---3----1-------------3---------0h1---1---0---1---3---|
G|---0---0---0-------------0---0---0----0-------------0---------0-----0---0---0---0---|
D|---0---0---0-------------2---0---2----2-------------0---------0h2---2---0---0---0---|
A|---2---0---2-------------3---2---0----0-------------2---------0-----0---2---0---2---|
E|---3---x---x-------------x---x---x----x-------------3---------3-----3---3---x---x---|
 
         I'm walking in my old footsteps, once again
 
 
[Chorus]
E|-------------0---3------------2--------------------0------------------2-------0----x---0---|
B|-------------3---3------------3--------------------3------------------3-------3----1---3---|
G|-------------0---0------------2--------------------0------------------2-------0----0---0---|
D|-------------2---0------------0--------------------2------------------0-------0----0---0---|
A|-------------3---2------------x--------------------3------------------x-------2----0---2---|
E|-------------x---3------------x--------------------x------------------x-------3----x---x---|
 
  And you say,     just be here now forget about the past, your mask is wearing thin
 
E|---0--------------3--------------2----------------------0------------2--------------0----------0----------|
B|---3--------------3--------------3----------------------3------------3--------------3----------3----------|
G|---0--------------0--------------2----------------------0------------2--------------0----------0----------|
D|---2--------------0--------------0----------------------2------------0--------------2----------0----------|
A|---3--------------2--------------x----------------------3------------x--------------3----------2----------|
E|---x--------------3--------------x----------------------x------------x--------------x----------3----------|
 
        Just let me throw one more dice I know that I can win      I'm waiting for my real life to begin
 
 
[Interlude]
E|---0---0-----0---3---0---0---0---0-----0---3---x---0---|
B|---3---0h1---1---0---3---3---3---0h1---1---0---1---3---|
G|---0---0-----0---0---2---0---0---0-----0---0---0---0---|
D|---0---0h2---2---0---0---2---0---0h2---2---0---0---0---|
A|---2---0-----0---2---0---3---2---0-----0---2---0---2---|
E|---3---3-----3---3---2---x---3---3-----3---3---x---x---|                     
 
 
[Verse 3]
E|-----------0----2-------------0---------0-----0---3---x-----------0---------------0---0---0----0---|
B|-----------3----3-------------3---------0h1---1---0---1-----------3---------------3---3---3----1---|
G|-----------0----2-------------0---------0-----0---0---0-----------0---------------0---0---0----0---|
D|-----------2----0-------------0---------0h2---2---0---0-----------0---------------2---0---2----2---|
A|-----------3----x-------------2---------0-----0---2---0-----------2---------------3---2---0----0---|
E|-----------x----x-------------3---------3-----3---3---x-----------x---------------x---x---x----x---|
 
  Any minute now,   my ship is coming in                  I'll keep checking the horiiiiiiiizon
 
E|---------------3---x---0---|
B|---1p0---------0---1---3---|
G|---------2p0---0---0---0---|
D|---------------0---0---0---|
A|---------------2---0---2---|
E|---------------3---x---x---|
 
                     And I'll check
 
E|---0----------2-------------------------0----0----0---3---x---0---------------0---0----0----0---|
B|---3----------3-------------------------3----0h1--1---0---1---3---------------3---3----3----1---|
G|---0----------2-------------------------0----0----0---0---0---0---------------0---0----0----0---|
D|---2----------0-------------------------0----0h2--2---0---0---0---------------2---0----2----2---|
A|---3----------x-------------------------2----0----0---2---0---2---------------3---2----0----0---|
E|---x----------x-------------------------3----3----3---3---x---x-------------------x----x----x---|
 
     my machine,  there's sure to be that call                    It's gonna happen soon soon
 
E|-----------------------------0---0-----0--------3------------------x---0---------|
B|-----------------1p0---------3---0h1---1--------0------------------1---3---------|
G|-----------------------2p0---0---0-----0--------0------------------0---0---------|
D|-----------------------------0---0h2---2--------0------------------0---0---------|
A|-----------------------------2---0-----0--------2------------------0---2---------|
E|-----------------------------3---3-----3--------3------------------x---x---------|    
 
  oh so very soon                  It's just that times are lean     And you say
 
 
 
[Chorus]
E|---0----3--------2------------------0-------------2-----------0----x---0---|
B|---3----3--------3------------------3-------------3-----------3----1---3---|
G|---0----0--------2------------------0-------------2-----------0----0---0---|
D|---2----0--------0------------------2-------------0-----------0----0---0---|
A|---3----2--------x------------------3-------------x-----------2----0---2---|
E|---x----3--------x------------------x-------------x-----------3----x---x---|
 
       be still my love  open up your heart let the light shine in
 
E|---0--------3--------2------------0---------------------------2--------------0----------0----------|
B|---3--------3--------3------------3---------------------------3--------------3----------3----------|
G|---0--------0--------2------------0---------------------------2--------------0----------0----------|
D|---2--------0--------0------------2---------------------------0--------------2----------0----------|
A|---3--------2--------x------------3---------------------------x--------------3----------2----------|
E|---x--------3--------x------------x---------------------------x--------------x----------3----------|
 
        Don't you understand  oh IIIIII already have a plan I'm waiting for my real life to begin
 
 
 
[Bridge]
E|---3------3----|---3--------3------|---3------3----|---3--------0------|
B|---3------3----|---3--------3------|---3------3----|---3--------3------|
G|---0------0----|---0--------0------|---0------0----|---0--------0------|
D|---2------2----|---2--------2------|---2------2----|---0--------2------|
A|---2------0----|---2--------0------|---2------0----|---2--------3------|
E|---0------x----|---0--------x------|---0------x----|---3--------x------|
 
       Haaaaaaay       Heeeeeeeeeeee      Heeeeeeee        Mmmmmmhaaaaaa
 
E|--------2------|---------0---------|--------3------|-----------3-----0--------3-------------------2----0---|
B|--------3------|---------3---------|--------3------|-----------3-----3--------3-------------------3----3---|
G|--------2------|---------0---------|--------0------|-----------0-----0--------0-------------------2----0---|
D|--------0------|---------2---------|--------2------|-----------2-----2--------0---------------0---0----2---|
A|--------x------|---------3---------|--------0------|-----------2-----3--------2------0--2--3------x----3---|
E|--------x------|---------x---------|--------x------|-----------0-----x--------3---3---------------x----x---|
 
  Haaaaaa         Haaaaaa             Haaaaaa          Heeeeeyer   Aaaaah   Aaaaah
 
 
[Outro]
E|-----------3---------0-------------------3------|
B|-----------3---------1-------------------3------|
G|-----------0---------0-------------------0------|
D|-----------0---------2-------------------0------|
A|-----------2---------3-------------------2------|
E|-----------3---------x-------------------3------|                                            
 
  On a clear day I can see, see for a long way
 
E|---------3---------0---------------------------3----3---3---3---3---3---|
B|---------3---------1---------------------------3----3---3---3---3---3---|
G|---------0---------0---------------------------0----0---0---0---0---0---|
D|---------0---------2---------------------------0----0---0---0---0---0---|
A|---------2---------3------------3-2-0----------2----2---2---2---2---2---|
E|---------3---------x--------------------3-2----3----3---3---3---3---3---|
            
Submit corrections

↑ Back to top | Tablatures and chords for acoustic guitar and electric guitar, ukulele, drums are parodies/interpretations of the original songs. You may use it for private study, scholarship, research or language learning purposes only