Home » C » Colin Hay »

Colin Hay - Looking For Jack Tabs

Artists:  A B C D E F G H I J K L M N O P Q R S T U V W X Y Z # 

Looking For Jack Tabs

(ver. 1) Click to play this song!
Colin Hay
-------------------------------------------------------------------------------
-------------------------------------------------------------------------------

Tuning: Standard (E-A-D-G-B-e)

Here is the whole version of Looking For Jack...


Intro & Verse

e|----------------------------|
B|---3----2----3----5---------|
G|---2----2----2----4---------|
D|---0----2----4----6---------|
A|--------4----0----0---------|
E|----------------------------|

end     e|--0----0-----|
at      B|--0----2-----|
the     G|--1----2-----|
verse   D|--2----2-----|
E       A|--2----0-----|
A       E|--0----------|


Chorus:

e|---------5----5-----0----------------7----7-----0--------------|
B|-----5--------5-----0------------7--------7-----3--------------|
G|--7-----------6-----6--------9------------8-----2--------------|
D|--7-----------7-----7--------9------------9-----0--------------|
A|--5-----------5-----4--------7------------7--------------------|
E|---------------------------------------------------------------|

Chorus in chords: Dsus2 - Aadd9 - Esus2 - Dsus2


Tanks!



===============================================================================
            
Submit corrections

↑ Back to top | Tablatures and chords for acoustic guitar and electric guitar, ukulele, drums are parodies/interpretations of the original songs. You may use it for private study, scholarship, research or language learning purposes only