Home » C » Colin Hay »

Colin Hay - Goodnight Romeo Tabs

Artists:  A B C D E F G H I J K L M N O P Q R S T U V W X Y Z # 

Goodnight Romeo Tabs

(ver. 1) Click to play this song!
Colin Hay

E|--0--2--4--0--2--4--5--4--2--0-----------------------------------------|
B|--0--------0--------------------4--5--5--4--2--0-----------------------|
G|--0--------0--------------------------------------------3-----------8--|
D|--0--------0--------------------------------------------0--------0--0--|
A|-----------------------------------------------------0--------0-----0--|
E|--------------------------------------------------5--------7--------0--|


E|--0--2--4--0--2--4--5--4--2--0--------------------------------------------------------------|
B|--0--------0--------------------4--5--5--4--2--0--------------------------------------------|
G|--0--------0--------------------------------------------3-----------8--------3-----------8--|
D|--0--------0--------------------------------------------0--------0--0--------0--------0--0--|
A|-----------------------------------------------------0--------0-----0-----0--------0-----0--|
E|--------------------------------------------------5--------7--------0--5--------7--------0--|

E|-----------------------------------------------------------------------------------|
B|-----------------------------------------------------------------------------------|
G|--------------------------------------------------------------------3-----------8--|
D|--------0--2--4--------0--2--4--5--4--2--0--------------------------0--------0--0--|
A|-----0--------------0-----------------------4--5--5--4--2--0-----0--------0-----0--|
E|--0--------------0--------------------------------------------5--------7--------0--|

E|--------------------------------------------------------------------------------------------------------|
B|--------------------------------------------------------------------------------------------------------|
G|--------------------------------------------------------------------3-----------8-------3------------8--|
D|--------0--2--4--------0--2--4--5--4--2--0--------------------------0--------0--0-------0---------0--0--|
A|-----0--------------0-----------------------4--5--5--4--2--0-----0--------0-----0-----0--------0-----0--|
E|--0--------------0--------------------------------------------5--------7--------0--5--------7--------0--|

E|--------------0--------------------------------------------0---------------------|
B|--------------0--0-----------------------------------------0--0------------------|
G|-----------0-----0--------------------------------------0-----0------------------|
D|--------4-----------2-----------------------------4-----------2--------2--4------|
A|-----2--------------------0--2--4--2--0--------2--------------------0------------|
E|--2--------------------0--------------------2--------------------0---------------|

E|--------------0--------------------------------------------0---------------------|
B|--------------0--0-----------------------------------------0--0------------------|
G|-----------0-----0--------------------------------------0-----0------------------|
D|--------4-----------2-----------------------------4-----------2--------2--4------|
A|-----2--------------------0--2--4--2--0--------2--------------------0------------|
E|--2--------------------0--------------------2--------------------0---------------|

E|--0--2--4--0--2--4--5--4--2--0-----------------------------------------|
B|--0--------0--------------------4--5--5--4--2--0-----------------------|
G|--0--------0--------------------------------------------3-----------8--|
D|--0--------0--------------------------------------------0--------0--0--|
A|-----------------------------------------------------0--------0-----0--|
E|--------------------------------------------------5--------7--------0--|

E|-----------------------------------------------------------------|
B|-----------------------------------------------------------------|
G|--------3-----------8--------3-----------8--------3-----------8--|
D|--------0--------0--0--------0--------0--0--------0--------0--0--|
A|-----0--------0-----0-----0--------0-----0-----0--------0-----0--|
E|--5--------7--------0--5--------7--------0--5--------7--------0--|            
Submit corrections

↑ Back to top | Tablatures and chords for acoustic guitar and electric guitar, ukulele, drums are parodies/interpretations of the original songs. You may use it for private study, scholarship, research or language learning purposes only