Home » C » Colin Hay »

Colin Hay - Going Somewhere Tabs

Artists:  A B C D E F G H I J K L M N O P Q R S T U V W X Y Z # 

Going Somewhere Tabs

(ver. 1) Click to play this song!
Colin Hay
-------------------------------------------------------------------------------
-------------------------------------------------------------------------------

This is the "correct" version of Going Somewhere, if there's anything wrong with it; 
leave a comment!

Tuning: E - Ab - Dd - G - B - e

Intro & Verse:

e|---0-----0-----0-----0--0-------|
B|---0-----0-----0-----0--0-------|
G|---7-----6-----4-----4--6-------|
D|---6-----5-----3-----3--5-------|
A|---6-----5-----3-----3--5-------|
E|---7-----6-----4-----4--6-------|
(in the end of the verse just play the first two chords before the chorus comes)

Chorus:

doesn't it feel good.....
e|---0------0-------------------|
B|---0------0-------------------|
G|---12-----11------------------|
D|---11-----10------------------|
A|---11-----11------------------|
E|---12-----11------------------|

going somewhere, going somewhere...
e|---0-----0--------------------------|
B|---0-----0--------------------------|
G|---6-----8--------------------------|
D|---8-----10-------------------------|
A|---8-----10-------------------------|
E|------------------------------------|

This is it! Just play the same stuff over & over again! The only difference is that the 
gets longer the other times you play it... Enjoy!


===============================================================================
            
Submit corrections

↑ Back to top | Tablatures and chords for acoustic guitar and electric guitar, ukulele, drums are parodies/interpretations of the original songs. You may use it for private study, scholarship, research or language learning purposes only