Home » C » Colin Hay »

Colin Hay - Down Under Tabs

Artists:  A B C D E F G H I J K L M N O P Q R S T U V W X Y Z # 

Down Under Tabs

(ver. 1) Click to play this song!
Colin Hay

I basically just took the 2 that I liked the most and
chucked them together, so if yer trying to listen to the song and
play along with it, it won't sound perfet.
This is just the way I like to play it and it works for me. :)


Intro/Verse:

-------------------------------------------------------------|
-------1-0------------5--3--------------1-0------------------|
-------2-2----------0------0------------2-2------------------|
-----2------------4---------4---------2----------------------|
---0---------------------------------0-----------------------|
---------------5---------------------------------------------|


-------------------------------------------------------------|
-------------------------------------------------------------|
------0--------0---------------------------------------------|
-----2--------4----------------------------------------------|
----3----s---5-----3-----------------------------------------|
-------------------------------------------------------------|

Chorus:

-------------------------------------------------------------|
-------1---------------5--3------------1-0-------------------|
-----0---0---0--------0----0--0--------2-2-------------------|
----2-----2----------4------4---------2----------------------|
---3-------3-------------------------0-----------------------|
-------------------5-----------------------------------------|

-------------------------------------------------------------|
-------------------------------------------------------------|
------0--------0---------------------------------------------|
-----2--------4----------------------------------------------|
----3----s---5-----3-----------------------------------------|
-------------------------------------------------------------|

Break/Ending:

This is the strumming bit, you really need to work out the rhythm for yourself just by 
to the song,
but I think these are basically the chords that the song is based around.

-------------------------------------------------------------|
----1--0----3--5--3----1--0----1-----3-----------------------|
----2--2----0--0--0----2--2----0-----0-----------------------|
----2--2----4--4--4----2--2----2-----4-----------------------|
----0--0----X--X--X----0--0----3-----5-----------------------|
------------5--5--5------------3--S--5-----------------------|


Whopper song, cheers for havin' a look :)
            
Submit corrections

↑ Back to top | Tablatures and chords for acoustic guitar and electric guitar, ukulele, drums are parodies/interpretations of the original songs. You may use it for private study, scholarship, research or language learning purposes only