Home » C » Colin Hay »

Colin Hay - Dear Father Tabs

Artists:  A B C D E F G H I J K L M N O P Q R S T U V W X Y Z # 

Dear Father Tabs

(ver. 1) Click to play this song!
Colin Hay
   G       D/F#      Am          Em        C           G5        D/F#        G
         'Dear father'    'Ive got'             'thank god'     'hip hip hooray'
e|---------------------------------------------------------------------------|
B|-------0-----3-----------1-0-1-0---------------1-0-1-0------------------3--|
G|-0---0---2---2---2-----2---------0-----------0---------0-------2----2---0--|
D|---0-----0-------0---2-------------2---0---2-------------0---0-0--0--------|
A|-------------------0---------------------3---------------------------------|
E|-3-------2-2---2---------------0-----0---------------3-----3---2-2----2-3--|
         'Dear Father'                         'Where did you go'
e|------------------------                    -------------------------------|
B|-------0----------------                    -----------3-------3-----------|
G|-----0------------------ Verse into bridge  -2-----2---0-----0-------0-----|
D|---0--------------------    transition -    -0---0---------0-------0-------|
A|------------------------                    -------------------------------|
E|-3----------------------                    -2-2-----2-3-3-------3---------|

Bridge - This is the melody for the bridge.
   Am        Em    D/F#  
        'In my'   'Mind'             
          /
e|---------------------------------------------------------------------------|
B|-------0-1-0-------------3-------------------------------------------------|
G|-2---2-------0---2-----2-------2-------------------------------------------|
D|---0-----------2-0---0-------0---------------------------------------------|
A|-0-------------------------------------------------------------------------|
E|-----------0-----2-2-------2-----------------------------------------------|

            
Submit corrections

↑ Back to top | Tablatures and chords for acoustic guitar and electric guitar, ukulele, drums are parodies/interpretations of the original songs. You may use it for private study, scholarship, research or language learning purposes only