Home » C » Cold War Kids »

Cold War Kids - Saint John Tabs

Artists:  A B C D E F G H I J K L M N O P Q R S T U V W X Y Z # 

Saint John Tabs

(ver. 1) Click to play this song!
Cold War Kids
Intro
                                                              2xs
e|--------------|--------------|-------------|---------------|
B|--------------|--------------|-------------|---------------|
G|:-------------|--------------|-------------|--------------:|
D|--9-----x--7--|--2----x-x-x--|--9----x--7--|--2----x-x-x---|
A|--x-----x--x--|--x----x-x-x--|--x----x--x--|--x----x-x-x---|
E|--7-----x--5--|--0----x-x-x--|--7----x--5--|--0----x-x-x---|
 
[Bridge]
Supper time in the hole
Supper time in the hole
I shamed my family, shamed my home
Supper time
 
e|--------------|-------------|-------------|----------------|
B|--------------|-------------|-------------|----------------|
G|:-------------|-------------|-------------|---------------:|
D|--9-----x--7--|--2-----x-x--|--9----x--7--|--2---14--x-x---|
A|--x-----x--x--|--x-----x-x--|--x----x--x--|--x---x---x-x---|
E|--7-----x--5--|--0-----x-x--|--7----x--5--|--0---12--x-x---|
 
 
[Chorus]
Old Saint John on death row, he's just waiting for a pardon
Old Saint John on death row, he's just waiting for a pardon
Old Saint John on death row, he's just waiting for a pardon
Old Saint John on death row (oh, he's just waiting)
 
e|--------------|---------------|---------------|---------------|
B|--------------|---------------|---------------|--10-----------|
G|-----9--11----|-11--9---------|-----9--11-----|--8--9---------|
D|--9--9--11----|-11--9--9------|--9--9--11-----|--7--9--9------|
A|--9--7--9-----|-9---7--9------|--9--7--9------|-----7--9------|
E|--7-----------|--------7------|--7------------|--------7------|
 
e|--------------|---------------|---------------|----------------|
B|--------------|---------------|---------------|--10------------|
G|-----9--11----|-11--9---------|-----9--11-----|--8--9----------|
D|--9--9--11----|-11--9--9------|--9--9--11-----|--7--9--9--x-x--|
A|--9--7--9-----|-9---7--9------|--9--7--9------|-----7--9--x-x--|
E|--7-----------|--------7------|--7------------|--------7--x-x--|
 
 
[Verse 1]
Now all the white boys in their Sta-Prest slacks
At home for the Summer from college
Staying out late getting rowdy at the bar
And looking for trouble uptown
They come up my block, 'bout five or six of them
Smashing their bottles in the gutter
Yelling all kinds of obscenities
About women and God and law
 
e|--------------|---------------|---------------|----------------|
B|--------------|---------------|---------------|--10-10---------|
G|-----9--11----|-11--9---------|-----9--11-----|--8--9---9------|
D|--9--9--11----|-11--9--9------|--9--9--11-----|--7--7---9--9---|
A|--9--7--9-----|-9---7--9------|--9--7--9------|---------7--9---|
E|--7-----------|--------7------|--7------------|------------7---|
 
 
[Bridge]
Another supper time in the hole
Supper time
I shamed my family, shamed my home
Supper time
                                                            2xs
e|--------------|-------------|-------------|-----------------|
B|--------------|-------------|-------------|-----------------|
G|:-------------|-------------|-------------|----------------:|
D|--9-----9--7--|--2---x-x-x--|--9----9--7--|--2--2--2--2--2--|
A|--x-----x--x--|--x---x-x-x--|--x----x--x--|--x--x--x--x--x--|
E|--7-----7--5--|--0---x-x-x--|--7----7--5--|--0--0--0--0--0--|
 
 
[Verse 2]
Young girl turned the corner with the curved dress on
That girl was my sister
Just got off the night shift at Pettington's Place
Just want to go home, get some sleep
Boys grab her by the waist with the caffeine eyes
Their hands all fidget electric
I picked up a brick from my Papa's front yard
And threw it at the tallest boy's face
Well, blood was streaming like a well that sprung
I couldn't believe what I had just done
Well, the other boy ran and this one stayed
On the ground and he would never move again
 
e|--------------|-----------------|---------------|----------------|
B|--------------|-----------------|---------------|--10-10---------|
G|-----9--11----|-11--11---9------|-----9--11-----|--8--9---9------|
D|--9--9--11----|-11--11---9--9---|--9--9--11-----|--7--7---9--9---|
A|--9--7--9-----|-9---9----7--9---|--9--7--9------|---------7--9---|
E|--7-----------|-------------7---|--7------------|------------7---|
 
 
[Chorus]
Old Saint John on death row, he's just waiting for a pardon
Old Saint John on death row, he's just waiting for a pardon
All us boys on death row, we're just waiting for a pardon
All us boys on death row
 
e|--------------|---------------|---------------|----------------|
B|--------------|---------------|---------------|--10-10---------|
G|-----9--11----|-11--9---------|-----9--11-----|--8--9---9------|
D|--9--9--11----|-11--9--9------|--9--9--11-----|--7--7---9--9---|
A|--9--7--9-----|-9---7--9------|--9--7--9------|---------7--9---|
E|--7-----------|--------7------|--7------------|------------7---|
 
e|--------------|---------------|---------------|-------------------|
B|--------------|---------------|---------------|--10-10------------|
G|-----9--11----|-11--9---------|-----9--11-----|--8--9---9---------|
D|--9--9--11----|-11--9--9------|--9--9--11-----|--7--7---9--9--14--|
A|--9--7--9-----|-9---7--9------|--9--7--9------|---------7--9--14--|
E|--7-----------|--------7------|--7------------|------------7--12--|
 
[Outro]
Yours truly on trial, I testify
I gotta keep on running till the well runs dry
Yours truly on trial, I testify
I gotta keep on running till the well runs
Yours truly on trial, I testify
I gotta keep on running till the well runs dry
Yours truly on trial, I testify
I gotta keep on running till the well runs dry
                                                           3xs
e|--------------|-------------|-------------|-----------------|
B|--------------|-------------|-------------|-----------------|
G|:-------------|-------------|-------------|----------------:|
D|--9-----9--7--|--2---x-x-x--|--9----9--7--|--2--2--2--2--2--|
A|--x-----x--x--|--x---x-x-x--|--x----x--x--|--x--x--x--x--x--|
E|--7-----7--5--|--0---x-x-x--|--7----7--5--|--0--0--0--0--0--|
 
e|--------------|-------------|---------------|
B|--------------|-------------|---------------|
G|:-------------|-------------|---------------|
D|--9-----9--7--|--2---x-x-x--|--9----9--7----|
A|--x-----x--x--|--x---x-x-x--|--x----x--x----|
E|--7-----7--5--|--0---x-x-x--|--7----7--5----|
            
Submit corrections

↑ Back to top | Tablatures and chords for acoustic guitar and electric guitar, ukulele, drums are parodies/interpretations of the original songs. You may use it for private study, scholarship, research or language learning purposes only