Home » C » Cold »

Cold - Change The World Tabs

Artists:  A B C D E F G H I J K L M N O P Q R S T U V W X Y Z # 

Change The World Tabs

(ver. 1) Click to play this song!
Cold
[Intro]

Part I

     G5     F5    G#5  G5     F5                G5          D#5
D#|---------------------------------------------------------------------------|
A#|---------------------------------------------------------------------------|
F#|---------------------------------------------------------------------------|
C#|--6-6666-4-4444-7-776-6666-4-4444-444--------6-6666-6662-2222-2222---------|
G#|--6-6666-4-4444-7-776-6666-4-4444-444--------6-6666-6662-2222-2222---------|
C#|--6-6666-4-4444-7-776-6666-4-4444-444-(x5)---6-6666-6662-2222-2222---------|
     * **** * **** * *** **** * **** ***        * **** **** **** ****


[Verse]

     G#5         F5               G#5 
D#|---------------------------------------------------------------------------|
A#|---------------------------------------------------------------------------|
F#|---------------------------------------------------------------------------|
C#|--7-7777-7777-4-4444-4444------7-7777-7-7777-------------------------------|
G#|--7-7777-7777-4-4444-4444------7-7777-7-7777-------------------------------|
C#|--7-7777-7777-4-4444-4444-(x3)-7-7777-7-7777-------------------------------|
     * **** **** * **** ****      * **** * ***

[Chorus]                                                                                [Outro]

     C#5             D#5             F5                 (F5add11)
D#|----------------------------------------------------------------------------------------------------------|
A#|----------------------------------------------------------------------------------------------------------|
F#|-------------------------------------------------(6666444466664444)-----------------------------6~~~~~~~~-|
C#|--0000000000000000222222222222222244444444444444444444444444444444--------------------0~~~~2~~~~4~~~~~~~~-|
G#|--0000000000000000222222222222222244444444444444444444444444444444--------------------0~~~~2~~~~4~~~~~~~~-|
C#|--0000000000000000222222222222222244444444444444444444444444444444-(x2 then 4 then 7)-0~~~~2~~~~4~~~~~~~~-|




[Bridge]

     A#5                       A#5/B 
D#|---------------------------------------------------------------------------|
A#|--12-1212121212-12-12121212-12-12-12-12--12--12-12-12-12-12-12-------------|
F#|--11-1111111111-11-11111111-11-11-11-11--11--11-11-11-11-11-11-------------|
C#|--9--9-9-9-9-9--9--9-9-9-9--10-10-10-10--10--10-10-10-10-10-10-------------|
G#|---------------------------------------------------------------------------|
C#|---------------------------------------------------------------------------|


     A#5/F#                    A#5/F 
D#|---------------------------------------------------------------------------|
A#|--12-1212121212-12-12121212-12-12-12-12--12--12-12-12-12-12-12-------------|
F#|--11-1111111111-11-11111111-11-11-11-11--11--11-11-11-11-11-11-------------|
C#|--9--9-9-9-9-9--9--9-9-9-9--9--9--9--9---9---9--9--9--9--9--9--------------|
G#|--10-1010101010-10-10101010-9--9--9--9---9---9--9--9--9--9--9--------------|
C#|---------------------------------------------------------------------------|            
Submit corrections

↑ Back to top | Tablatures and chords for acoustic guitar and electric guitar, ukulele, drums are parodies/interpretations of the original songs. You may use it for private study, scholarship, research or language learning purposes only