Home » C » Cody Simpson »

Cody Simpson - Palm Of Your Hand Tabs

Artists:  A B C D E F G H I J K L M N O P Q R S T U V W X Y Z # 

Palm Of Your Hand Tabs

(ver. 1) Click to play this song!
Cody Simpson
[On Ukulele]
    C               Cmaj7       Am7
a|--3--3-3/5-3-0-2--2--2-3-2-0--0------|
e|--0---------------0-----------0--1-0-|
c|--0---------------0-----------0------|
g|--0---------------0-----------0------|

[On Guitar]
    G               Gmaj7       Em7
e|--3--3-3/5-3-0-2--2--2-3-2-0--0------|
b|--0---------------0-----------0--1-0-|
g|--0---------------0-----------0------|
d|--0---------------0-----------0------|
a|--2---------------2-----------1------|
E|--3---------------3-----------0------|

(Capo at 5th fret ^^^!!!)            
Submit corrections

↑ Back to top | Tablatures and chords for acoustic guitar and electric guitar, ukulele, drums are parodies/interpretations of the original songs. You may use it for private study, scholarship, research or language learning purposes only