Home » C » Cocteau Twins »

Cocteau Twins - Sugar Hiccup Bass

Artists:  A B C D E F G H I J K L M N O P Q R S T U V W X Y Z # 

Sugar Hiccup Bass

(ver. 1) Click to play this song!
Cocteau Twins
[Intro]
 
G|----11-----11--12-------------------|
D|---------------------9-------9--11--| x4
A|------------------------------------|
E|------------------------------------|
 
G|------------------|
D|------7-----------|
A|------0-----------| x 2
E|------------------|
 
 
[Chorus]
 
G|----11-----11--12-------------------|
D|---------------------9-------9--11--| x8
A|------------------------------------|
E|------------------------------------|
 
 
[Bridge]
 
G|---11------11--12--------9----------|
D|------------------------------------|
A|------------------------------------|
E|------------------------------------|
 
G|---9-------9--11--------7-----------|
D|------------------------------------|
A|------------------------------------|x 2
E|------------------------------------|
 
[Chorus]
 
G|----11-----11--12-------------------|
D|---------------------9-------9--11--| x8
A|------------------------------------|
E|------------------------------------|
 
[Extended Bridge]
 
G|---11------11--12--------9----------|
D|------------------------------------|
A|------------------------------------|
E|------------------------------------|
 
G|---9-------9--11--------7-----------|
D|------------------------------------|
A|------------------------------------|x 6
E|------------------------------------|
 
 
[Chorus]
 
 
G|----11-----11--12-------------------|
D|---------------------9-------9--11--| x4
A|------------------------------------|
E|------------------------------------|
 
G|------------------|
D|------7-----------|
A|------0-----------| x 2
E|------------------|
 
 
[Outro]
 
G|----11-----11--12-------------------|
D|---------------------9-------9--11--| x5
A|------------------------------------|
E|------------------------------------|
            
Submit corrections

↑ Back to top | Tablatures and chords for acoustic guitar and electric guitar, ukulele, drums are parodies/interpretations of the original songs. You may use it for private study, scholarship, research or language learning purposes only