» » »

Cocteau Twins - Pearly-Dewdrops Drops Tabs

Artists:  A B C D E F G H I J K L M N O P Q R S T U V W X Y Z # 

Pearly-Dewdrops Drops Tabs

(ver. 1) Click to play this song!
Cocteau Twins
 Rating:
4/5 (4 votes)

 Pearly-Dewdrops Drops  lessons Tabs too difficult? Try these video lessons and learn fast
 
                Standard Tuning



Robin Guthrie (Fender Jazzmaster with chorus, flange, and delay)



INTRO/VERSE:
e|-------------------------------------5-----------------5----------------|
B|-------------------------------------------5-----------------5----------|
G|-------------------------------------------------7-----------------7----|
D|------------------------------------------------------------------------|
A|------------------------------------------------------------------------|
E|------------------------------------------------------------------------|



CHORUS I:
e|-------0-----------------0-----------------0-----------------0----------|
B|-------------3-----------------3-----------------3-----------------3----|
G|-2-----------------2-----------------2-----------------2----------------|
D|------------------------------------------------------------------------|
A|------------------------------------------------------------------------|
E|------------------------------------------------------------------------|



BRIDGE:
e|-------------------0----------------------------------------------------|
B|-------------0-----------0----------------------------------------------|
G|-------0-----------------0----------------------------------------------|
D|-2-----------------------2----------------------------------------------|
A|------------------------------------------------------------------------|
E|------------------------------------------------------------------------|
+
e|/12-12-12-12-12-12-12-12-12-12-12-12-12-12-12-12-12-12-12-12-12-12-12-12|
B|/12-12-12-12-12-12-12-12-12-12-12-12-12-12-12-12-12-12-12-12-12-12-12-12|
G|/12-12-12-12-12-12-12-12-12-12-12-12-12-12-12-12-12-12-12-12-12-12-12-12|
D|/14-14-14-14-14-14-14-14-14-14-14-14-14-14-14-14-14-14-14-14-14-14-14-14|
A|------------------------------------------------------------------------|
E|------------------------------------------------------------------------|
+
e|-9----------------------------------------------------------------------|
B|-------10---------------------------------------------------------------|
G|-------------11---------------------------------------------------------|
D|-------------------12---------------------------------------------------|
A|------------------------------------------------------------------------|
E|------------------------------------------------------------------------|
+
                                     - depress whammy bar
e|----9-------------------------------(9)---------------------------------|
B|---10-------------------------------(10)--------------------------------|
G|--11--------------------------------(11)--------------------------------|
D|-12---------------------------------(12)--------------------------------|
A|------------------------------------------------------------------------|
E|------------------------------------------------------------------------|
+
e|-------------------0----------------------------------------------------|
B|-------------0----------------------------------------------------------|
G|-------0----------------------------------------------------------------|
D|-2----------------------------------------------------------------------|
A|------------------------------------------------------------------------|
E|------------------------------------------------------------------------|
+
e|/12-12-12-12-12-12-12-12-12-12-12-12-12-12-12-12-12-12-12-12-12-12-12-12|
B|/12-12-12-12-12-12-12-12-12-12-12-12-12-12-12-12-12-12-12-12-12-12-12-12|
G|/12-12-12-12-12-12-12-12-12-12-12-12-12-12-12-12-12-12-12-12-12-12-12-12|
D|/14-14-14-14-14-14-14-14-14-14-14-14-14-14-14-14-14-14-14-14-14-14-14-14|
A|------------------------------------------------------------------------|
E|------------------------------------------------------------------------|



CHORUS II:
e|-------12----------------12----------------12----------------12---------|
B|-------------15----------------15----------------15----------------15---|
G|-14----------------14----------------14----------------14---------------|
D|-0----------------------------------------------------------------------|
A|------------------------------------------------------------------------|
E|------------------------------------------------------------------------|



OUTRO:
                                           - depress whammy bar
e|-------------------0----------------------(0)---------------------------|
B|-------------0----------------------------(0)---------------------------|
G|-------0----------------------------------(0)---------------------------|
D|-2----------------------------------------(2)---------------------------|
A|------------------------------------------------------------------------|
E|------------------------------------------------------------------------|
+
e|/12-12-12-12-12-12-12-12-12-12-12-12-12-12-12-12-12-12-12-12-12-12-12-12|
B|/12-12-12-12-12-12-12-12-12-12-12-12-12-12-12-12-12-12-12-12-12-12-12-12|
G|/12-12-12-12-12-12-12-12-12-12-12-12-12-12-12-12-12-12-12-12-12-12-12-12|
D|/14-14-14-14-14-14-14-14-14-14-14-14-14-14-14-14-14-14-14-14-14-14-14-14|
A|------------------------------------------------------------------------|
E|------------------------------------------------------------------------|
+
                                           - depress whammy bar
e|-9----------------------------------------(9)---------------------------|
B|-------10---------------------------------(10)--------------------------|
G|-------------11---------------------------(11)--------------------------|
D|-------------------12---------------------(12)--------------------------|
A|------------------------------------------------------------------------|
E|------------------------------------------------------------------------|
+
e|----9-------------------------------------------------------------------|
B|---10-------------------------------------------------------------------|
G|--11--------------------------------------------------------------------|
D|-12---------------------------------------------------------------------|
A|------------------------------------------------------------------------|
E|------------------------------------------------------------------------|
+
e|--+12-------------------------------------------------------------------|
B|-+12--------------------------------------------------------------------|
G|+12---------------------------------------------------------------------|
D|------------------------------------------------------------------------|
A|------------------------------------------------------------------------|
E|------------------------------------------------------------------------|



SONG STRUCTURE:

12" Version:
SINGING INTRO (no guitar) 0:22
INTRO x 4
VERSE x 8
CHORUS I x 8
VERSE x 8
CHORUS I x 8
BRIDGE
CHORUS I x 8
CHORUS II x 16
OUTRO

7" Version:
INTRO x 4
VERSE x 8
CHORUS I x 8
VERSE x 8
CHORUS I x 8
BRIDGE
CHORUS I x 8
CHORUS II x 16 (fade out)



            
Submit corrections


        Pearly-Dewdrops Drops  lessons Hard to play? Try these video lessons and learn fast Pearly-Dewdrops Drops  lessons
        
↑ Back to top | Tablatures and chords for acoustic guitar and electric guitar, ukulele, drums are parodies/interpretations of the original songs. You may use it for private study, scholarship, research or language learning purposes only