» » »

Cocteau Twins - Crushed Tabs

Artists:  A B C D E F G H I J K L M N O P Q R S T U V W X Y Z # 

Crushed Tabs

(ver. 1) Click to play this song!
Cocteau Twins
 Rating:
3/5 (30 votes)

 Crushed  lessons Tabs too difficult? Try these video lessons and learn fast
 
                Verse and chorus:

    C                 F                     Em               Am
e|--8-----8-----8-----8-------8-------8-----7-----7-----7----12-------12-------12-------|
B|----8-----8-----8-----10------10------10----8-----8-----8-----13-------13-------13----|
G|------9-----9------------10------10-----------9-----9------------14-------14----------|
D|--------------------------------------------------------------------------------------|
A|--------------------------------------------------------------------------------------|
E|--------------------------------------------------------------------------------------|

Then the key changes(around 1:10) and this is played over and over:

   Fm                  D#
e|--8------8------8-----6-----6-----6-------|
B|----9------9------9-----8-----8-----8-----|
G|------10-----10-----------8-----8---------|
D|------------------------------------------|
A|------------------------------------------|
E|------------------------------------------|

And then right before the chorus(first part) kicks in:

    G
e|--10-------10-------10-------10--------10--------10-------|
B|-----12-------12-------12-------12--------12--------------|
G|--------12-------12-------12-------12--------12-----------|
D|----------------------------------------------------------|
A|----------------------------------------------------------|
E|----------------------------------------------------------|            
Submit corrections


        Crushed  lessons Hard to play? Try these video lessons and learn fast Crushed  lessons
        
↑ Back to top | Tablatures and chords for acoustic guitar and electric guitar, ukulele, drums are parodies/interpretations of the original songs. You may use it for private study, scholarship, research or language learning purposes only